PrimaNota.ru - самый крупный в мире бесплатный архив песенных текстов, аккордов, табулатур и нот


Andres Calamaro - Dias Distintos - таба, видео

Регистрация Запомнить меня
Войти через:  Facebook Google Twitter Vk Yandex Mail.ru

Andres Calamaro - Dias Distintos - таба, видео

Печатать
Просмотров: 94
E||----------------------------------------------|
B||----3-4--3-4~------------4-3---4-3~-----------|
G||--5-------------------5------5----------------|
D||----------------------------------------------|
A||----------------------------------------------|
E||----------------------------------------------|


-------------------------------------------------|
---------4-3---------------4-3-------------------|
-----3-5-----5-3-2~---2-5-----5-3-2-0------------|
-------------------------------------------------|
-------------------------------------------------|
-------------------------------------------------|

E||----------------------------------------------|
B||----3-4--3-4~------------4-3---4-3~-----------|
G||--5-------------------5------5----------------|
D||----------------------------------------------|
A||----------------------------------------------|
E||----------------------------------------------|


------------------------------------------------||
----------4-3---------------4-3-----------------||
------3-5-----5-3-2~---2-5-----5-3-2-0----------||
------------------------------------------------||
------------------------------------------------||
------------------------------------------------||
Добавлено: 15.07.2015
Другие материалы по этой песне:
  • Аккорды и текст

Страница создана 15.07.2015
http://primanota.ru/andres-calamaro/dias-distintos-chords.htm
Привет, Гость.
Предлагаем пройти революционный курс по гитаре.
Подарок от PrimaNota.Ru, забирай!