PrimaNota.ru - самый крупный в мире бесплатный архив песенных текстов, аккордов, табулатур и нот


Andres Calamaro - Algo Contigo - аккорды и текст, видео

Регистрация Запомнить меня
Войти через:  Facebook Google Twitter Vk Yandex Mail.ru

Andres Calamaro - Algo Contigo - аккорды и текст, видео

Печатать
Просмотров: 197
Авторы музыки: Chico Novarro
Авторы текста: Chico Novarro
Algo Contigo
Andres Calamaro
All I did was write down the amazing job that this guy did on a video tutorial:
http://www.youtube.com/watch?v=scIWDh2xWLM


(/) Slide Up  (\) Slide Down  (h) Hammer On  (p) Pull Off  (b) Bend (r) Release (v) Vibrato

INTRO
           D               D            A                  F#7       Bm

E|-2p5p2-0-2---------------3-1-1-0h1p0---------------------------------2-----------|
B|---------3-3-3h5p3-3-2h3-3-----------3-3p2-----1-2-3p2-1/2-------5-3-2-3p2-------|
G|---------2---------------2-------------2-------------------3---------4-----4-4---|
D|---------0---------------0-------------2-------------------2---4-----4-----------|
A|---------------------------------------0---0---------------4---------2-----------|
E|---------------------------------------------3-------------2-2-------------------|


                Bm7b5                    A
E|---------------------------------------0---0-------------------|
B|---0-0h2p0---0-3-2h3p2p0-------0-0h1---0-----2-2h3p2p0---------|
G|-3---------3---2---------2p1-2-------2-2---------------2p1-----|
D|---------------3-----------------------2-------------------4-2-|
A|---------------2-----------------------0-0---------------------|
E|---------------------------------------------------------------|


CHORDS

   A9  C#7 F#sus4  Em7b5  A7  D7+  C#m7b5  F#    Bm   Bmº         D  Dsus4 Dm  Bm7b5
              |Fill 1|
E|-0----4----2-------3----0----2-----------2-----2-----0--------2----3----1------------|
B|-2----6----2-------3----2----2-----5-----2-----3---3-3-3---3--3----3----3----3-------|
G|-4----4----4-------3----0----2-----4-----3-----4-4---4---4----2----2----2----2-------|
D|-2----6----4-4-3-2-2----2----0-----5-----4-----4-----4--------0----0----0----3-------|
A|-0----4----x------------0----------4-----4-----2-----2-----------------------2-------|
E|-----------2-----------------------------2-------------------------------------------|
              |Fill 1|

       A9                           C#7                         F#sus4 |Fill 1| Em7b5 | A7
¿Hace falta que te diga que me muero por tener algo contigo? 
        D7M                         C#m7b5       F#             Bm    Bmº  
¿Es que no te has dado cuenta de lo mucho que me cuesta ser tu amigo? 
      D                     Dsus4 Dm     A          G         F#7
Ya no puedo acercarme a tu boca, sin deseartela de una manera loca.
 Bm7b5                                     E                      E7
Necesito controlar tu vida, saber quién te besa y quién te abriga. 


       A9                           C#7                         F#m |Fill 1| Em7b5 | A7
¿Hace falta que te diga que me muero por tener algo contigo?
        D7M                         C#m7b5       F#             Bm    Bmº
¿Es que no te has dado cuenta de lo mucho que me cuesta ser tu amigo? 
D                     Dsus4 Dm      A          G         F#7
Ya me quedan muy pocos caminos, aunque pueda parecerte un desatino, 
 Bm7b5                       E           Asus2
no quisiera yo morirme sin tener algo contigo. 


Solo 
(Same as first verse with lots of transition variations, you can improvise)

      D                 Dsus4/Dm     A        G      F#          F#7
Ya no puedo continuar espiando día y noche tu llegar adivinando, 
      Bm                  B7                  E F#  F#7
ya no sé con qué inocente excusa pasar por tu casa... 
      D                    Dsus4/Dm    A         G            F#    F#7
Ya me quedan muy pocos caminos, aunque pueda parecerte un desatino, 
      Bm7b5                       E           D Dsus4/Dm
no quisiera yo morirme sin tener algo contigo. 
    A     G       F# F#7    Bm7b5    E E7   Asus2
Sin tener algo contigo. Sin tener, algo... contigo.
Добавлено: 04.11.2013
Другие материалы по этой песне:
  • Аккорды и текст

Страница создана 04.11.2013
http://primanota.ru/andres-calamaro/algo-contigo-chords.htm
Привет, Гость.
Предлагаем пройти революционный курс по гитаре.
Подарок от PrimaNota.Ru, забирай!