PrimaNota.ru - самый крупный в мире бесплатный архив песенных текстов, аккордов, табулатур и нот


Andreas Rönnberg - Rain Stained Windows - таба, видео

Регистрация Запомнить меня
Войти через:  Facebook Google Twitter Vk Yandex Mail.ru

Andreas Rönnberg - Rain Stained Windows - таба, видео

Печатать
Просмотров: 253
-------------------------------------------------------------------------------
                             Rain Stained Windows - Andreas Rönnberg
-------------------------------------------------------------------------------
Tabbed by: Ethan Frederick
E-mail: ethanpfrederick@gmail.com

Tuning: EADGBe (standard)

e|---------------------------------------------------------------|
B|---------------------------------------------------------------|
G|---------------------------------------------------------------|
D|---------------------------------------------------------------|
A|-9--9--9/7--7--7--------12--------12---------------------------|
E|------------------9-10------9-10-------------------------------|


e|---------------------------------------------------------------|
B|---------------------------------------------------------------|
G|---------------------------------------------------------------|
D|---------------------------------------------------------------|
A|-9--9--9/7--7--7---------12--------12--------------------------|
E|-9--9--9/7--7--7---9-10------9-10------------------------------|


e|---------------------------------------------------------------|
B|---------------------------------------------------------------|
G|---------------------------------------------------------------|
D|------9-------9-------9-------9--------------------------------|
A|----7---7-------7-------7-------7------------------------------|
E|--5---------5-------5-------5----------------------------------|

(background stuff)
e|----------------------------------------------------------------------------------|
B|----------------------------------------------------------------------------------|
G|----------------------------------------------------------------------------------|
D|-11--11--12--12--11---11--11--12--12--11---9--9--12--11--9---9--9--12--11--9------|
A|----------------------------------------------------------------------------------|
E|----------------------------------------------------------------------------------|


*NOTES*
Listen to the song to find where everything pieces together and when to play each part.
These are the correct tabs though for just about every part!
Добавлено: 14.10.2015
Другие материалы по этой песне:
  • Аккорды и текст

Страница создана 14.10.2015
http://primanota.ru/andreas-ronnberg/rain-stained-windows-chords.htm
Привет, Гость.
Предлагаем пройти революционный курс по гитаре.
Подарок от PrimaNota.Ru, забирай!