PrimaNota.ru - самый крупный в мире бесплатный архив песенных текстов, аккордов, табулатур и нот


Andreas Johnson - Head Of The Family - текст песни, таба, видео

Регистрация Запомнить меня
Войти через:  Facebook Google Twitter Vk Yandex Mail.ru

Andreas Johnson - Head Of The Family - текст песни, таба, видео

Печатать
Просмотров: 161
Уроки эстрадного вокала в Санкт-Петербурге
Tabbed for Standard Tuning
Tabbed by Jeppe
Songwriter: Andreas Johnson
BPM: 125

Intro

Dm   |C   |C   |G   |
Dm   |C   |A   |A   |   x2

Slide guitar
e-------------------------------------------|
B---6--8/5--5--5/6--3----6--8/5---5--3--2---|
G-------------------------------------------|
D-------------------------------------------|
A-------------------------------------------|
E-------------------------------------------|

e--------------------------------------------|
B---6--8/5--5--5/6--3----6--8/5---10--8/10/8-|
G--------------------------------------------|
D--------------------------------------------|
A--------------------------------------------|
E--------------------------------------------|

Verse 1
Dm           C
 Head of the family,
                G          Dm
That's what you are to me
               C        A
There's nothing more to say
Dm         C              G        Dm
 I've been changing, rearranging
       C       A
Everything you gave to me

Chorus

   Gm  C     F
So how can I feel
    Gm     C   F      A
The beauty you possess
Dm  E     A
How can I see
    Gm                 A
The love-the love you express

Verse 2

Dm           C
 Head of the family
        G            Dm
In everything we see
          C           A
Under the surface you float
Dm           C
 Head of the family
          G           Dm
Just like you and me
           C      A
So this is how we grow-no

Chorus

   Gm  C     F
So how can I feel
    Gm     C   F      A
The beauty you possess
Dm  E     A
How can I see
    Gm                 A
The love-the love you express

Interlude

Dm   |C   |C   |G   |
Dm   |C   |A   |A   |   x2

Slide guitar
e-------------------------------------------|
B---6--8/5--5--5/6--3----6--8/5---5--3--2---|
G-------------------------------------------|
D-------------------------------------------|
A-------------------------------------------|
E-------------------------------------------|

e--------------------------------------------|
B---6--8/5--5--5/6--3----6--8/5---10--8/10/8-|
G--------------------------------------------|
D--------------------------------------------|
A--------------------------------------------|
E--------------------------------------------|

Chorus

   Gm  C     F
So how can I feel
    Gm     C   F      A
The beauty you possess
Dm  E     A
How can I see
    Gm                 A
The love-the love you express

Verse 3

Dm          C
Head of the family
                G
that's what you are to me
Dm              C       Dm
There's nothing more to say
Добавлено: 18.05.2012
Другие материалы по этой песне:
  • Аккорды и текст

Страница создана 18.05.2012
http://primanota.ru/andreas-johnson/head-of-the-family-chords.htm
Привет, Гость.
Предлагаем пройти революционный курс по гитаре.
Подарок от PrimaNota.Ru, забирай!