PrimaNota.ru - самый крупный в мире бесплатный архив песенных текстов, аккордов, табулатур и нот


Andreas Et Nicolas - Ma Super Chérie - аккорды и текст, видео

Регистрация Запомнить меня
Войти через:  Facebook Google Twitter Vk Yandex Mail.ru

Andreas Et Nicolas - Ma Super Chérie - аккорды и текст, видео

Печатать
Просмотров: 231
Уроки эстрадного вокала в Санкт-Петербурге
Ma Super Chérie
Andreas Et Nicolas
Please note that "Vx" means "Mute the strings and strum down once" through the tab.

Intro :

e|------------------|
B|-5----5-----5-----|
G|---6----6---------| x2
D|-----6----6---6---|
A|------------------|
E|------------------|

e|------------------|
B|-9----9-----9-----|
G|---9----9---------| x2
D|-----9----9---9---|
A|------------------|
E|------------------|

                          let ring
e|------------------|    |-2----------|
B|-5----5-----5-----|    |-4----------|
G|---6----6---------| x2 |-4----------|
D|-----6----6---6---|    |-4----------|
A|------------------|    |-2----------|
E|------------------|    |-2----------|


Verse 1 (Fast down strum & Palm mute) :
Play the chords as a bar chords

C#m
Supercherie, ma super-chérie
  E
était un homme en réalité
C#m
Supercherie, ma super-chérie
  E
était un homme en réalité
C#m 
Elle faisait pipi debout
A 
Elle ne parlait que de foot
C#m
Ca n'me genait pas du tout
B
jusqu'a ce jour


Verse 2 :
C#m
Supercherie, ma super-chérie
  E
était un homme en réalité
C#m
Supercherie, ma super-chérie
  E
était un homme en réalité
C#m                        A
Elle distribuait des coup d'boule
                 E
Le caca n'était pas tabou
C#m                   A
J'adorait ses cheveux courts
B
jusqu'a ce jour


Chorus :

Vx    Vx
Où j'ai vu
A                    E
Ses couilles sous la douche !
            A                   E
J'ai vu son sexe en bleu blanc rouge
      A             E
Aucun doutes sur ce coup
          B
c'est mon épou-seuh

Vx Vx Vx Vx  A                E   
Ce sont des couilles sous la mousse !
       A               E
Du gel douche au pamplemousse !
        A          E
Dit moi tout, mon amour
            B
Tell me the truth


Verse 3 :

Vx       Vx  Vx
Prénom ? Patrick !
Vx    Vx Vx
Age ? 38 !
Vx      Vx  Vx
Sexe ? Ouiiiii !!
Vx           Vx
Profession ? Prof de sexe dans un college mixte !


Verse 4 :

Em       B       Em              B  
Ma super-chérie, c'est une supercherie
Em       B
Moi qui pensait que tu possedait un sexe feminin
Em       B       Em              B 
Ma super-chérie, c'est une supercherie
                          C#m
J'étais sous l'emprise du seeeeexe ...

                     E
Ma vie n'est plus la meme ...
C#m
Sous sexe ...
                     B
Ma vie n'est plus la meme ...
A
Sous sexe ...
Je n'remarquait pas
E
ton sexe ...
                  C#m
je suis désormais ton ex
       B
a tout jamais


Chorus :

Vx    Vx
Car j'ai vu
A                    E
Ses couilles sous la douche !
            A                   E
J'ai vu son sexe en bleu blanc rouge
      A             E
Aucun doutes sur ce coup
          B
Il y a un sexe d'homme dans ma douche !

            A                E   
Ce sont des couilles sous la mousse !
       A               E
Du gel douche au pamplemousse !
             A         E
Je ne t'aime plus mon amour
           B
Depuis ce jour


Outro : 

        A
Tu m'as trompé
        C#m
Tu m'as dupé
        A      B
C'est terminéééé.

e|------------------|
B|-5----5-----5-----|
G|---6----6---------| x2
D|-----6----6---6---|
A|------------------|
E|------------------|

e|------------------|
B|-9----9-----9-----|
G|---9----9---------| x2
D|-----9----9---9---|
A|------------------|
E|------------------|

                          let ring
e|------------------|    |-4----------|
B|-5----5-----5-----|    |-5----------|
G|---6----6---------| x2 |-6----------|
D|-----6----6---6---|    |-6----------|
A|------------------|    |-4----------|
E|------------------|    |-4----------|
Добавлено: 14.06.2016
Другие материалы по этой песне:
  • Аккорды и текст

Страница создана 14.06.2016
http://primanota.ru/andreas-et-nicolas/ma-super-cherie-chords.htm
Привет, Гость.
Предлагаем пройти революционный курс по гитаре.
Подарок от PrimaNota.Ru, забирай!