PrimaNota.ru - самый крупный в мире бесплатный архив песенных текстов, аккордов, табулатур и нот


Andrea Bocelli - Madame Butterfly - таба, видео

Регистрация Запомнить меня
Войти через:  Facebook Google Twitter Vk Yandex Mail.ru

Andrea Bocelli - Madame Butterfly - таба, видео

Печатать
Просмотров: 215
madame butterfly


andrea bocelli




     para paty 
la princesa mariposa

                                               
e:-5----------------------------------------------------------|
B:-6----------------------------------------------------------|
G:-7----------------------------------------------------------|
D:-7----------------------------------------------------------|
A:------------------------------------------------------------|
E:------------------------------------------------------------|


e:---------4----------------------------------------------------4--------4-|
B:-------4---4-----------------6------------------------------5--------5---|
G:-----6--------8--5---------6---6--5--8--10--10--8--5------6--------6-----|
D:---6----------8--5--6----8--------5--8--10--10--8--5----6--------6-------|
A:-4------------6--3--6--8----------3--6--8-------6--3--4------------------|
E:--------------------4--6-------------------------------------------------|


e:-----------------------------------------1------------------1-|
B:-7-6---6--------------------6----------1---1--------------1---|
G:-6---8-6-6-8-6--6--8-6------6--------1-------1----------1-----|
D:-6-----6-6-6-6--8--8-8---8--8------3-----------3------3-------|
A:----------------8--6-6-6-8--8----3---------------3------------|
E:----------------6------8-6--6--1--------------------0---------|

e:-0-0-2-3-2-0---0-0--0-0-2-3--5-7--7-------------8-10-12--------9----------12-|
B:-0-0-0-0-0-0-0-0-0--0-0-0-0--0-0--0--------9-11----------10-12---12-10----10-|
G:-2-2-2-2-2-2-2-2-2--2-2-2-2--0-0--0--9--11---------------9-------------11-11-|
D:-2-----------2------2----------------10------------------0----------------0--|
A:-0------------------0----------------0---------------------------------------|
E:-----------------------------------------------------------------------------|

e:------7-8-7-----------------------------4--2-1---------------6-8-9-11--|
B:-7/10-------10-7-10-10------------------4--2-1--8--8----6--9-----------|
G:-----------------------------8--7-6--5--5--3-2--8--8-8--6--------------|
D:------------------------3/10-10-9-8--6--6--4-3--8--8-8--6--------------|
A:----------------------------------------6--4-3--6--6-6--4--------------|
E:----------------------------------------4--2-1-------------------------|

e:-13--11-----------------------------------------------------|
B:-11--11-----------------------------------------------------|
G:-11--11-----------------------------------------------------|
D:------------------------------------------------------------|
A:------------------------------------------------------------|
E:------------------------------------------------------------|


e:---------4----------------------------------------------------4-|
B:-------4---4-----------------6------------------------------5---|
G:-----6--------8--5---------6---6--5--8--10--10--8--5------6-----|
D:---6----------8--5--6----8--------5--8--10--10--8--5----6-------|
A:-4------------6--3--6--8----------3--6--8-------6--3--4---------|
E:--------------------4--6----------------------------------------|


e:--------------6----------------------------------|
B:--------------6----6--6h9------------------------|
G:-8--5---------7----7--7--------6-6-6-6-6-6-6-6-6-|
D:-8--5--6--8---8------------6---6-6-6-6-6-6-6-6-6-|
A:-6--3--6--8---8------------6---4-4-4-4-4-4-4-4-4-|
E:-------4--6---6------------4---------------------|



hillo son mex


inicio  6/05/11
final  30/07/11
Добавлено: 12.07.2012
Другие материалы по этой песне:
  • Аккорды и текст

Страница создана 12.07.2012
http://primanota.ru/andrea-bocelli/madame-butterfly-chords.htm
Привет, Гость.
Предлагаем пройти революционный курс по гитаре.
Подарок от PrimaNota.Ru, забирай!