PrimaNota.ru - самый крупный в мире бесплатный архив песенных текстов, аккордов, табулатур и нот


Andre - In Dying Days - бас-таба, видео

Регистрация Запомнить меня
Войти через:  Facebook Google Twitter Vk Yandex Mail.ru

Andre - In Dying Days - бас-таба, видео

Печатать
Просмотров: 129
Уроки эстрадного вокала в Санкт-Петербурге
Intro:
F||-----------------------------------------------------------------------|
C||-----------------------------------------------------------------------|
G||-----------------------------------------------------------------------|
C||-0-------------(0)--------------8-------------------7---------------11-|

F||---------------------------------------------------------------------|
C||---------------------------------------------------------------------|
G||-5v------5v------8h10---10h12---8h10p8p7-----7778881010108887775554b-|
C||-----000-----000------0-------0-----------888------------------------|

F||---------------------------------------------------------------------------------|
C||---------------------------------------------------------------------------------|
G||-5v------5v------8---7---10---8---7h8p7----------7h8---5h7p5---------5h7---4h5p4-|
C||-----000-----000---0---0----0---0--------8--888------8--------7--777-----7-------|

F||---------------------------------------------------------------------|
C||---------------------------------------------------------------------|
G||-5v------5v------8h10---10h12---8h10p8p7-----7778881010108887775554b-|
C||-----000-----000------0-------0-----------888------------------------|

F||----------------------------------------------------|
C||----------------------------------------------------|
G||-5----(5)----(5)----(5)----(5)----(5)----(5)--------|
C||-0----(0)----(0)----(0)----(0)----(0)----(0)----12\-|
    	                                       End Intro
Verse I:
F||------------------------------------------------------------------|
C||------------------------------------------------------------------|
G||-5-----5---5---8---7---10---8p7------5---5---5h8------4---4---4h7-|
C||---0-0---0---0---0---0----0------8-8---8---8------7-7---7---7-----|

F||---------------------------------------------------------------|
C||---------------------------------------------------------------|
G||-5-----5---5---8h12-8h12-7h10-7h10-----7778881010108887775554b-|
C||---0-0---0---0----------------------888------------------------|

F||------------------------------------------------------------------|
C||------------------------------------------------------------------|
G||-5-----5---5---8---7---10---8p7------5---5---5h8------4---4---4h7-|
C||---0-0---0---0---0---0----0------8-8---8---8------7-7---7---7-----|

F||---------------------------------------------------------------|
C||---------------------------------------------------------------|
G||-5-----5---5---8h12-8h12-7h10-7h10-----7778881010108887775554b-|
C||---0-0---0---0----------------------888------------------------|
                                                        End Verse I
Verse II:   
F||----------------------------------------------------------------|
C||----------------------------------------------------------------|
G||-----5---4h5---5h7---7h8---8h10------8---7h8---8h10---8p7---5p4-|
C||-0-0---0-----0-----0-----0-------8-8---0-----0------0-----0-----|x2
                                                        End Verse II
Verse III:
F||------------------------------------------------------------------|
C||------------------------------------------------------------------|
G||-5-----5---5---8---7---10---8p7------5---5---5h8------4---4---4h7-|
C||---0-0---0---0---0---0----0------8-8---8---8------7-7---7---7-----|

F||---------------------------------------------------------------|
C||---------------------------------------------------------------|
G||-5-----5---5---8h12-8h12-7h10-7h10-----7778881010108887775554b-|
C||---0-0---0---0----------------------888------------------------|

F||----------------------------------------------------------------------|
C||----------------------------------------------------------------------|
G||-5-----5---5---12---10---13---10p12------5---5---5h8------4---4---4h7-|
C||---0-0---0---0----0----0----0--------8-8---8---8------7-7---7---7-----|

F||---------------------------------------------------------------|
C||---------------------------------------------------------------|
G||-5-----5---5---8h12-8h12-7h10-7h10-----7778881010108887775554b-|
C||---0-0---0---0----------------------888------------------------|
                                                      End Verse III
Verse IV:
F||----------------------------------------77----------|
C||------------------------------------------777-88-5--|
G||---555777888---555777888---777888101010-------------|
C||-00----------77----------88--------------------------|x4
                                                   End Verse IV
Breakdown Part I:
F||----------------------------------|
C||----------------------------------|
G||----------------------------------|
C||------------------------------20\-|

F||-------------------------------------------------------------------------|
C||-------------------------------------------------------------------------|
G||-------------------------------------------------------------------------|
C||-0000--0000-0000-0-0000--0000-0000-0-0000--0000-0000-0-0000--0000-0000-0-|

F||---------------------------------------------------------------------------------------------|
C||---------------------------------------------------------------------------------------------|
G||---------------------------------------------------------------------------------------------|
C||-0000--0000-0000-0-0000--0000-0000-0-0000--0000-0000-0-0000--0000-000-0-0----------------11\-|

PAUSE
End Breakdown Part I
Breakdown Part II:
F||----------------------------------------------------------------------------|
C||----------------------------------------------------------------------------|
G||----------------------------------------------------------------------------|
C||-0-0-0-0-0----0-0-0-0-0--0-0-0-0-0--0--0-0-0-0-0----0-0-0-0-0--0-0-0-0-0--0-|

F||-----------------------------------------------------------------------------|
C||-----------------------------------------------------------------------------|
G||-----------------------------------------------------------------------------|
C||-0-0-0-0-0----0-0-0-0-0--0-0-0-0-0--0--0-0-0-0-0----0-0-0-0-0--0-0-0-0-0--8\-|

F||----------------------------------------------------------------------------|
C||----------------------------------------------------------------------------|
G||----------------------------------------------------------------------------|
C||-1-1-1-1-1----1-1-1-1-1--1-1-1-1-1--1--1-1-1-1-1----1-1-1-1-1--1-1-1-1-1--1-|
                                                           
F||-----------------------------------------------------------------------------|
C||-----------------------------------------------------------------------------|
G||-----------------------------------------------------------------------------|
C||-0-0-0-0-0----0-0-0-0-0--0-0-0-0-0--0--0-0-0-0-0----0-0-0-0-0--0-0-0-0-0--0--|
                                                            End Breakdown Part II
F||---------------------------|
C||-5-8-7---7-5-----7-5-------|
G||-------8-----8-7-----8-7-5-|
C||---------------------------|

Verse V:
F||-----------------------------------------------|
C||-----------------------------------------------|
G||----------------5h7------------5h8p5h8-4h7p4h7-|
C||0000-000-00-5h7-----000-000-00-----------------|

F||---------------------------------------------------|
C||---------------------------------------------------|
G||----------------5h7------------8h11p8h11-7h10p7h10-|
C||0000-000-00-5h7-----000-000-00---------------------||x2
                                                       End Verse V
Verse VI:
F||---------------------------------------------|
C||---------------------------------------------|
G||---555444555777555777888777888101010888-5-4b-|
C||-0-------------------------------------------|

F||-------------------------------------------------------|
C||-------------------------------------------------------|
G||---55544455577755577788877788810b--8h12p8h12-7h10p7h10-|
C||-0-----------------------------------------------------|
                                          End Verse VI
Verse VII:
F||------------------------------------------------------------------|
C||------------------------------------------------------------------|
G||-5-----5---5---8---7---10---8p7------5---5---5h8------4---4---4h7-|
C||---0-0---0---0---0---0----0------8-8---8---8------7-7---7---7-----|

F||---------------------------------------------------------------|
C||---------------------------------------------------------------|
G||-5-----5---5---8h12-8h12-7h10-7h10-----7778881010108887775554b-|
C||---0-0---0---0----------------------888------------------------|

F||------------------------------------------------------------------|
C||------------------------------------------------------------------|
G||-5-----5---5---8---7---10---8p7------5---5---5h8------4---4---4h7-|
C||---0-0---0---0---0---0----0------8-8---8---8------7-7---7---7-----|

F||-----------------------------------------------------------------|
C||-----------------------------------------------------------------|
G||-5-----5---5---8h12-8h12-7h10-7h10-----777888101010888-7--5---4--|
C||---0-0---0---0----------------------888--------------------------|
                                                        End Verse VII
Outro:
F||-----------------------------------------------------------------------------------------|
C||-----------------------------------------------------------------------------------------|
G||-5v------5v-------10h12-10-12-12/13-12-10h12p10---------7h8---5h7p5----------5h7---4h5p4-|
C||-----000-----000--------------------------------8--888--------------7--777---------------|

F||-------------------------------------------------------------------------------|
C||-------------------------------------------------------------------------------|
G||-5v------5v------8h10---10h12---8h10p8p7------12h13-12-10h12p10---8h10p8-7h8p7-|
C||-----000-----000--------------------------888-------------------7--------------|

F||-------------------------------------------------------------------------------------|
C||-------------------------------------------------------------------------------------|
G||-5v------5v-------5/8--7--8--8/10--8--7h8p0---------7h8---5h7p5----------5h7---4h5p4-|
C||-----000-----000-----------------------------8--888--------------7--777--------------|

F||-------------------------------------------------------------------------------|
C||-------------------------------------------------------------------------------|
G||-5v------5v------8h10---10h12---8h10p8p7------12h13-12-10h12p10---8h10p8-7h8p7-|
C||-----000-----000--------------------------888-------------------7--------------|

F||------------------------------------------------|
C||------------------------------------------------|
G||-5----(5)----(5)----(5)----(5)----(5)----(5)----|
C||-0----(0)----(0)----(0)----(0)----(0)----(0)----|
                                          
Добавлено: 04.03.2012
Вам также может быть интересно:
Другие материалы по этой песне:
  • Аккорды и текст

Страница создана 04.03.2012
http://primanota.ru/andre/in-dying-days-chords.htm
Привет, Гость.
Предлагаем пройти революционный курс по гитаре.
Подарок от PrimaNota.Ru, забирай!