PrimaNota.ru - самый крупный в мире бесплатный архив песенных текстов, аккордов, табулатур и нот


Andre Valadao - Solta O Cabo Da Nau - аккорды и текст, видео

Регистрация Запомнить меня
Войти через:  Facebook Google Twitter Vk Yandex Mail.ru

Andre Valadao - Solta O Cabo Da Nau - аккорды и текст, видео

Печатать
Просмотров: 110
Solta O Cabo Da Nau
Andre Valadao
Intro 2x:


E|-12--12-------14--14-------15--14----12-----------------------|
B|---------12-----------15----------12--------------------------|
G|--------------------------------------------------------------|
D|--------------------------------------------------------------|
A|--------------------------------------------------------------|
E|--------------------------------------------------------------|


Intro:  E  G5  A9  B5  A9  (3x)

    E                                                   A9
Oh, por que duvidar sobre as ondas do mar
C#m                   A9            B5
Quando Cristo o caminho abriu?
E                                                   A9
Quando forçado és contra as ondas lutar
C#m                   B5      A9
Seu amor a ti quer revelar

E                                A9
Solta o cabo da nau, toma os remos nas mãos
   E                             B5
E navega com fé em Jesus
E                                A9
E então tu verás que bonança se faz
  C#m            B5      A9
Pois com Ele seguro serás                 

Reintro 3x: E  G5  A9  B5  A9 

E
Trevas vem te assustar
A9
Tempestade no mar
C#m                     A9           B5
Da montanha o Mestre te vê
E                            A9
E a tripulação Ele vem socorrer
C#m                   B5      A9
Sua mão bem te pode suster
E                                A9
Solta o cabo da nau, toma os remos nas mãos
  E                             B5
E navega com fé em Jesus
E                                A9
E então tu verás que bonança se faz
  C#m            B5      A9
Pois com Ele seguro serás                 

Reintro 3x: E  G5  A9  B5  A9

E                                                   A9
Quando pedes mais fé, Ele ouve, oh, crê
C#m                     A9           B5
Mesmo sendo em tribulação
E                                         A9
Quando a mão de poder o teu ego tirar
C#m                   B5      A9
Sobre as ondas poderás andar

E                                A9
Solta o cabo da nau, toma os remos nas mãos
   E                             B5
E navega com fé em Jesus
E                                A9
E então tu verás que bonança se faz
  C#m            B5      A9
Pois com Ele seguro serás
E                                A9
Solta o cabo da nau, toma os remos nas mãos
   E                             B5
E navega com fé em Jesus
E                                A9
E então tu verás que bonança se faz
  C#m            B5      A9
Pois com Ele seguro serás

Solo:


E|-12--12-------14--14-------15--14--12-----------------------|
B|---------12-----------12------------------------------------|
G|------------------------------------------------------------|
D|------------------------------------------------------------|
A|------------------------------------------------------------|
E|------------------------------------------------------------|


( E  G5  A9  B5  A9 ) 2x

---------------------
Thanks to JLS Org.© 2013 for contributing with the song.
Добавлено: 04.09.2015
Другие материалы по этой песне:
  • Аккорды и текст

Страница создана 04.09.2015
http://primanota.ru/andre-valadao/solta-o-cabo-da-nau-chords.htm
Привет, Гость.
Предлагаем пройти революционный курс по гитаре.
Подарок от PrimaNota.Ru, забирай!