PrimaNota.ru - самый крупный в мире бесплатный архив песенных текстов, аккордов, табулатур и нот


Andre Nickatina - Powda For The Hoes - таба, видео

Регистрация Запомнить меня
Войти через:  Facebook Google Twitter Vk Yandex Mail.ru

Andre Nickatina - Powda For The Hoes - таба, видео

Печатать
Просмотров: 123
-------------------------------------------------------------------------------
                             Powda 4 The Hoes - Andre Nickatina
-------------------------------------------------------------------------------
one of my favorite bass lines

Tabbed By : Valerie L
e-mail:  iloled@yahoo.com
Tuning: standard
the bassist is playing on a five string so you can play this is E flat but if you don't 
to tune down then just play it like this in standard

Intro same thing as verse and chorus x6
Intro/Verse/Chorus
G|--------------------------------------------------------------------------------------|
D|------4------------------------------------------4--------4-6/88~---8---6-------------|
A|6~--6---6~--66-----------1------6----4-6---6~--6---6~--66---------6---6----6----------|
E|---------------2-4-66--1---1-4----6------------------------------------------4/666-12\|


Verse after first chorus:
G|--------------------------------------------|
D|------4--------4-6/88~---8---6--------------|
A|6~--6---6~--66---------6---6----6-----------|
E|----------------------------------4/666-12\-|

G|------------------------------------------------------------------------------------|
D|-------4----------------------------------------4--------4-6/88~---8---6------------|
A|-6~--6---6-~--66----------1-------6---46--6~--6---6~--66---------6---6---6----------|
E|-----------------2-4-66-1---1-4~----6--------------------------------------4/666-12\|

intro x2
Chorus x2

Keep playing the intro throughout the whole song
Добавлено: 12.06.2012
Другие материалы по этой песне:
  • Аккорды и текст

Страница создана 12.06.2012
http://primanota.ru/andre-nickatina/powda-for-the-hoes-chords.htm
Привет, Гость.
Предлагаем пройти революционный курс по гитаре.
Подарок от PrimaNota.Ru, забирай!