PrimaNota.ru - самый крупный в мире бесплатный архив песенных текстов, аккордов, табулатур и нот


Andre Nickatina - Coka Cola - текст песни, бас-таба, видео

Регистрация Запомнить меня
Войти через:  Facebook Google Twitter Vk Yandex Mail.ru

Andre Nickatina - Coka Cola - текст песни, бас-таба, видео

Печатать
Просмотров: 179
-------------------------------------------------------------------------------
			     Coka Cola - Andre Nickatina
-------------------------------------------------------------------------------

Tabbed By : Valerie L
e-mail: iloled@yahoo.com
Tuning: standard

Intro & Verse
G|---------------------------------------------------|
D|---------------------------------------------------|
A|------55--------55---------------55--------55------|
E|-3~--------3~------6-6-----3~--------3~--------6~--| x7

Chorus
G|---------------------------------------------------------------|
D|---------------------------------------------------------------|
A|-----------5-5-5------------5-5-5------------5-5-5---------3~--|
E|-3~---3333--------2~---2222-------1~----1111-------0~----------|

Then keep playing the verse over and over again until the end of the song
Добавлено: 17.05.2012
Другие материалы по этой песне:
  • Аккорды и текст

Страница создана 17.05.2012
http://primanota.ru/andre-nickatina/coka-cola-chords.htm
Привет, Гость.
Предлагаем пройти революционный курс по гитаре.
Подарок от PrimaNota.Ru, забирай!