PrimaNota.ru - самый крупный в мире бесплатный архив песенных текстов, аккордов, табулатур и нот


Andre Herman Dune - Smalltown Boy - таба, видео

Регистрация Запомнить меня
Войти через:  Facebook Google Twitter Vk Yandex Mail.ru

Andre Herman Dune - Smalltown Boy - таба, видео

Печатать
Просмотров: 310
-------------------------------------------------------------------------------
         Smalltown Boy - Andre Herman Dune (Bronski Beat cover)
-------------------------------------------------------------------------------
Tabbed by: JI
Email:
Andre Herman Dune Website: www.hermandune.com/
Tuning: Standard (Capo on 3rd Fret)

Heard this song on skins and fell in love with it so i thought i'd have a go at 
tabbing it, this is my first tab so go easy on me 
lol any corrections or suggestions would be appreciated. :)

e|---------------------------------------------------------------------------|
B|--3-3-3-3-3-3-3-3-3-3-3-3-3-3-3-3------------------------------------------|
G|-----------------0-0-0-0-3-3-3-3-------------------------------------------|   (x2) Verse 1
D|-0-0-0-0-------------------------------------------------------------------|
A|---------3-3-3-3-----------------------------------------------------------| 
E|---------------------------------------------------------------------------|   

e|---1--1-1--0--0-0--3--3-0--1--1--1-----------------------------------------|
B|--3--3----3--3----3--3----3--3---------------------------------------------|
G|-----------------0--0--0-3--3--3-------------------------------------------|   (x2) Bridge
D|-0--0--0-------------------------------------------------------------------|
A|---------3--3--3-----------------------------------------------------------|
E|---------------------------------------------------------------------------|

e|---------------------------------------------------------------------------|
B|--3-3-3-3-3-3-3-3-3-3-3-3-3-3-3-3------------------------------------------|
G|-----------------0-0-0-0-3-3-3-3-------------------------------------------|   (x3) Verse 2
D|-0-0-0-0-------------------------------------------------------------------|
A|---------3-3-3-3-----------------------------------------------------------|
E|---------------------------------------------------------------------------|

e|--1--1--1--1--0--0--0--0--3--3--3--3--1--1--1--1---------------------------|
B|--3--3--3--3--3--3--3--3--3--3--3--3--3--3--3--3---------------------------|
G|-------------------------0--0--0--0--3--3--3--3----------------------------|   (x2) Chorus
D|-0--0--0--0----------------------------------------------------------------|
A|-------------3--3--3--3----------------------------------------------------|
E|---------------------------------------------------------------------------|

e|---------------------------------------------------------------------------|
B|--3-3-3-3-3-3-3-3-3-3-3-3-3-3-3-3------------------------------------------|
G|-----------------0-0-0-0-3-3-3-3-------------------------------------------|   (x4) Verse 3
D|-0-0-0-0-------------------------------------------------------------------|
A|---------3-3-3-3-----------------------------------------------------------| 
E|---------------------------------------------------------------------------| 

e|--1-1-1-1--0-0-0-0-0-0-0-0-0-0-0-0--1-1-1-1--0-0-0-0--3-3-3-3--1-1-1-1-----|
B|--3-3-3-3--3-3-3-3-3-3-3-3-3-3-3-3--3-3-3-3--3-3-3-3--3-3-3-3--3-3-3-3-----|
G|-----------------------------------------------------0-0-0-0--3-3-3-3------|   (x1) Verse 3
D|-0-0-0-0---------------------------0-0-0-0---------------------------------|
A|----------3-3-3-3-3-3-3-3-3-3-3-3-----------3-3-3-3------------------------|
E|---------------------------------------------------------------------------|

e|---------------------------------------------------------------------------|
B|--3-3-3-3-3-3-3-3-3-3-3-3-3-3-3-3------------------------------------------|
G|-----------------0-0-0-0-3-3-3-3-------------------------------------------|   (x2) Chorus
D|-0-0-0-0-------------------------------------------------------------------|
A|---------3-3-3-3-----------------------------------------------------------| 
E|---------------------------------------------------------------------------|

e|---1--1-1--0--0-0--3--3-0--1--1-1------------------------------------------|
B|--3--3----3--3----3--3----3--3---------------------------------------------|
G|-----------------0--0--0-3--3--3-------------------------------------------|   (x2) Outro
D|-0--0--0-------------------------0-----------------------------------------|
A|---------3--3--3-----------------------------------------------------------|
E|---------------------------------------------------------------------------|

e|---------------------------------------------------------------------------|
B|---------------------------------------------------------------------------|
G|---------------------------------------------------------------------------|   
D|---------------------------------------------------------------------------|
A|---------------------------------------------------------------------------|
E|---------------------------------------------------------------------------|



Lyrics:

You leave in the morning
With everything you own
In a little black case
Alone on a platform
The wind and the rain
On a sad and lonely face

Mother will never understand
Why you had to leave
But the the love that you need
Will never be found at home
And the answers you seek
Will never be found at home

Turn away, run away, turn away, run away, run away.
Turn away, run away, turn away, run away, turn away.

Pushed around and kicked around
Always a lonely boy
You were the one
That they'd talk about around town
As they put you down

But as hard as they would try
To hurt and make you cry
You would never cry to them
Just to your soul
No you would never cry to them
Just to your soul
You will never cry to them
Just to your soul

Turn away, run away, turn away, run away, run away.
Turn away, run away, turn away, run away, turn away.




| /  slide up
| \  slide down
| h  hammer-on
| p  pull-off
| ~  vibrato
| +  harmonic
| x  Mute note
===============================================================================
Добавлено: 31.03.2012
Другие материалы по этой песне:
  • Аккорды и текст

Страница создана 31.03.2012
http://primanota.ru/andre-herman-dune/smalltown-boy-chords.htm
Привет, Гость.
Предлагаем пройти революционный курс по гитаре.
Подарок от PrimaNota.Ru, забирай!