PrimaNota.ru - самый крупный в мире бесплатный архив песенных текстов, аккордов, табулатур и нот


Andralls - Hate - текст песни, таба, видео

Регистрация Запомнить меня
Войти через:  Facebook Google Twitter Vk Yandex Mail.ru

Andralls - Hate - текст песни, таба, видео

Печатать
Просмотров: 93
Andralls
Hate 
from the album Massacre, Corruption, Destruction...
By: andralls@yahoo.com.br
                                                         
D||--------------------------|--------------------------|
A||--------------------------|--------------------------|
F||--------------------------|--------------------------|
C||--------------------------|--------------------------|
G||--------------------------|--------------3--4--3--4--|
D||--3--0--0--2--0--0--1--0--|--0--1--0--0--1--2--1--2--|


                                                                              
--------------------------|-----------------------|--------------------------|
--------------------------|-----------------------|--------------------------|
--------------------------|-----------------------|--------------------------|
--------------------------|-----------------------|--------------------------|
--------------------------|--------------5--------|--------------------------|
--3--0--0--2--0--0--1--0--|--0--5--6--7-----------|--3--0--0--2--0--0--1--0--|


                                                                              
--------------------------|--------------------------|-----------------------|
--------------------------|--------------------------|-----------------------|
--------------------------|--------------------------|-----------------------|
--------------------------|--------------------------|-----------------------|
--------------3--4--3--4--|--------------------------|--------------5--------|
--0--1--0--0--1--2--1--2--|--3--0--0--2--0--0--1--0--|--0--5--6--7-----------|


                                                      
--------------------------|--------------------------|
--------------------------|--------------------------|
--------------------------|--------------------------|
--------------------------|--------------------------|
--------------------------|--------------3--4--3--4--|
--3--0--0--2--0--0--1--0--|--0--1--0--0--1--2--1--2--|


                                                                              
--------------------------|-----------------------|--------------------------|
--------------------------|-----------------------|--------------------------|
--------------------------|-----------------------|--------------------------|
--------------------------|-----------------------|--------------------------|
--------------------------|--------------5--------|--------------------------|
--3--0--0--2--0--0--1--0--|--0--5--6--7-----------|--3--0--0--2--0--0--1--0--|


                                                                              
--------------------------|--------------------------|-----------------------|
--------------------------|--------------------------|-----------------------|
--------------------------|--------------------------|-----------------------|
--------------------------|--------------------------|-----------------------|
--------------3--4--3--4--|--------------------------|--------------5--------|
--0--1--0--0--1--2--1--2--|--3--0--0--2--0--0--1--0--|--0--5--6--7-----------|


                                                      
--------------------------|--------------------------|
--------------------------|--------------------------|
--------------------------|--------------------------|
--------------------------|--------------------------|
--4--------4--------4-----|--4-----------------------|
--2--0--0--2--0--0--2--0--|--2--0--0--0--0--0--0--0--|


                                                      
--------------------------|--------------------------|
--------------------------|--------------------------|
--------------------------|--------------------------|
--------------------------|--------------------------|
--4--------4--------4-----|--4-----------------------|
--2--0--0--2--0--0--2--0--|--2--0--0--0--0--0--0--0--|


                                                      
--------------------------|--------------------------|
--------------------------|--------------------------|
--------------------------|--------------------------|
--------------------------|--------------------------|
--4--------4--------4-----|--4-----------------------|
--2--0--0--2--0--0--2--0--|--2--0--0--0--0--0--0--0--|


                                                                              
--------------------------|-----------------------|--------------------------|
--------------------------|-----------------------|--------------------------|
--------------------------|-----------------------|--------------------------|
--------------------------|-----------------------|--------------------------|
--4--------4--------4-----|--4-----------5--------|--4--------4--------4-----|
--2--0--0--2--0--0--2--0--|--2--5--6--7-----------|--2--0--0--2--0--0--2--0--|


                                                      
--------------------------|--------------------------|
--------------------------|--------------------------|
--------------------------|--------------------------|
--------------------------|--------------------------|
--4-----------------------|--4--------4--------4-----|
--2--0--0--0--0--0--0--0--|--2--0--0--2--0--0--2--0--|


                                                      
--------------------------|--------------------------|
--------------------------|--------------------------|
--------------------------|--------------------------|
--------------------------|--------------------------|
--4-----------------------|--4--------4--------4-----|
--2--0--0--0--0--0--0--0--|--2--0--0--2--0--0--2--0--|


                                                      
--------------------------|--------------------------|
--------------------------|--------------------------|
--------------------------|--------------------------|
--------------------------|--------------------------|
--4-----------------------|--4--------4--------4-----|
--2--0--0--0--0--0--0--0--|--2--0--0--2--0--0--2--0--|


                                                                        
--------------------------|---------------------|----------------------|
--------------------------|---------------------|----------------------|
--------------------------|---------------------|----------------------|
--------------------------|---------------------|----------------------|
--4-----------------------|--8------7------8----|----10------8----7----|
--2--0--0--0--0--0--0--0--|--6------5------6----|----8-------6----5----|


                                                                            
--------------------------|--------------------------|---------------------|
--------------------------|--------------------------|---------------------|
--------------------------|--------------------------|---------------------|
--------------------------|--------------------------|---------------------|
--2-----------------------|--------------------------|--8------7------8----|
--0--0--0--0--0--0--0--0--|--0--0--0--0--0--0--0--0--|--6------5------6----|


                                                          
----------------------|----------------------------------|
----------------------|----------------------------------|
----------------------|----------------------------------|
----------------------|----------------------------------|
----10------8----7----|--2-------------------------------|
----8-------6----5----|--0-0-0-0-0-0-0-0-0-0-0-0-0-0-0-0-|


                                                                                
----------------------------------|---------------------|----------------------|
----------------------------------|---------------------|----------------------|
----------------------------------|---------------------|----------------------|
----------------------------------|---------------------|----------------------|
----------------------------------|--8------7------8----|----10------8----7----|
--0-0-0-0-0-0-0-0-0-0-0-0-0-0-0-0-|--6------5------6----|----8-------6----5----|


                                                                            
--------------------------|--------------------------|---------------------|
--------------------------|--------------------------|---------------------|
--------------------------|--------------------------|---------------------|
--------------------------|--------------------------|---------------------|
--2-----------------------|--------------------------|--8------7------8----|
--0--0--0--0--0--0--0--0--|--0--0--0--0--0--0--0--0--|--6------5------6----|


                                                                      
----------------------|-------------------|--------------------------|
----------------------|-------------------|--------------------------|
----------------------|-------------------|--------------------------|
----------------------|-------------------|--------------------------|
----10------8----7----|--2----------------|--4--------4--------4-----|
----8-------6----5----|--0----------------|--2--0--0--2--0--0--2--0--|


                                                      
--------------------------|--------------------------|
--------------------------|--------------------------|
--------------------------|--------------------------|
--------------------------|--------------------------|
--4-----------------------|--4--------4--------4-----|
--2--0--0--0--0--0--0--0--|--2--0--0--2--0--0--2--0--|


                                                      
--------------------------|--------------------------|
--------------------------|--------------------------|
--------------------------|--------------------------|
--------------------------|--------------------------|
--4-----------------------|--4--------4--------4-----|
--2--0--0--0--0--0--0--0--|--2--0--0--2--0--0--2--0--|


                                                                              
--------------------------|--------------------------|-----------------------|
--------------------------|--------------------------|-----------------------|
--------------------------|--------------------------|-----------------------|
--------------------------|--------------------------|-----------------------|
--4-----------------------|--4--------4--------4-----|--4-----------5--------|
--2--0--0--0--0--0--0--0--|--2--0--0--2--0--0--2--0--|--2--5--6--7-----------|


                                                      
--------------------------|--------------------------|
--------------------------|--------------------------|
--------------------------|--------------------------|
--------------------------|--------------------------|
--4--------4--------4-----|--4-----------------------|
--2--0--0--2--0--0--2--0--|--2--0--0--0--0--0--0--0--|


                                                      
--------------------------|--------------------------|
--------------------------|--------------------------|
--------------------------|--------------------------|
--------------------------|--------------------------|
--4--------4--------4-----|--4-----------------------|
--2--0--0--2--0--0--2--0--|--2--0--0--0--0--0--0--0--|


                                                      
--------------------------|--------------------------|
--------------------------|--------------------------|
--------------------------|--------------------------|
--------------------------|--------------------------|
--4--------4--------4-----|--4-----------------------|
--2--0--0--2--0--0--2--0--|--2--0--0--0--0--0--0--0--|


                                                      
--------------------------|--------------------------|
--------------------------|--------------------------|
--------------------------|--------------------------|
--------------------------|--------------------------|
--4--------4--------4-----|--4-----------------------|
--2--0--0--2--0--0--2--0--|--2--0--0--0--0--0--0--0--|


                                                                
----------------------------------|----------------------------|
----------------------------------|----------------------------|
----------------------------------|----------------------------|
----------------------------------|----------------------------|
----------------------------------|------------------7----8----|
--3-3-3-3-3-3-3-3-3-3-3-3-3-3-3-3-|--3-3-3-3-3-3-3-3-5----6----|


                                                                
----------------------------------|----------------------------|
----------------------------------|----------------------------|
----------------------------------|----------------------------|
----------------------------------|----------------------------|
----------------------------------|------------------7----8----|
--3-3-3-3-3-3-3-3-3-3-3-3-3-3-3-3-|--3-3-3-3-3-3-3-3-5----6----|


                                                                
----------------------------------|----------------------------|
----------------------------------|----------------------------|
----------------------------------|----------------------------|
----------------------------------|----------------------------|
----------------------------------|------------------7----8----|
--3-3-3-3-3-3-3-3-3-3-3-3-3-3-3-3-|--3-3-3-3-3-3-3-3-5----6----|


                                                                
----------------------------------|----------------------------|
----------------------------------|----------------------------|
----------------------------------|----------------------------|
----------------------------------|----------------------------|
----------------------------------|------------------7----8----|
--3-3-3-3-3-3-3-3-3-3-3-3-3-3-3-3-|--3-3-3-3-3-3-3-3-5----6----|


                                                                
----------------------------------|----------------------------|
----------------------------------|----------------------------|
----------------------------------|----------------------------|
----------------------------------|----------------------------|
----------------------------------|------------------7----8----|
--3-3-3-3-3-3-3-3-3-3-3-3-3-3-3-3-|--3-3-3-3-3-3-3-3-5----6----|


                                                                
----------------------------------|----------------------------|
----------------------------------|----------------------------|
----------------------------------|----------------------------|
----------------------------------|----------------------------|
----------------------------------|------------------7----8----|
--3-3-3-3-3-3-3-3-3-3-3-3-3-3-3-3-|--3-3-3-3-3-3-3-3-5----6----|


                                                                
----------------------------------|----------------------------|
----------------------------------|----------------------------|
----------------------------------|----------------------------|
----------------------------------|----------------------------|
----------------------------------|------------------7----8----|
--3-3-3-3-3-3-3-3-3-3-3-3-3-3-3-3-|--3-3-3-3-3-3-3-3-5----6----|


                                                                          
-------------------|------------------|----------------------------------|
-------------------|------------------|----------------------------------|
-------------------|------------------|----------------------------------|
-------------------|------------------|----------------------------------|
--4----------------|------------------|----------------------------------|
--2----------------|------------------|--3-3-3-3-3-3-3-3-3-3-3-3-3-3-3-3-|


                                                                
----------------------------|----------------------------------|
----------------------------|----------------------------------|
----------------------------|----------------------------------|
----------------------------|----------------------------------|
------------------7----8----|----------------------------------|
--3-3-3-3-3-3-3-3-5----6----|--3-3-3-3-3-3-3-3-3-3-3-3-3-3-3-3-|


                                                                
----------------------------|----------------------------------|
----------------------------|----------------------------------|
----------------------------|----------------------------------|
----------------------------|----------------------------------|
------------------7----8----|----------------------------------|
--3-3-3-3-3-3-3-3-5----6----|--3-3-3-3-3-3-3-3-3-3-3-3-3-3-3-3-|


                                                                    
----------------------------|-------------------|------------------|
----------------------------|-------------------|------------------|
----------------------------|-------------------|------------------|
----------------------------|-------------------|------------------|
------------------7----8----|--4----------------|------------------|
--3-3-3-3-3-3-3-3-5----6----|--2----------------|------------------|


                                                      
--------------------------|--------------------------|
--------------------------|--------------------------|
--------------------------|--------------------------|
--------------------------|--------------------------|
--4--------4--------4-----|--4-----------------------|
--2--0--0--2--0--0--2--0--|--2--0--0--0--0--0--0--0--|


                                                      
--------------------------|--------------------------|
--------------------------|--------------------------|
--------------------------|--------------------------|
--------------------------|--------------------------|
--4--------4--------4-----|--4-----------------------|
--2--0--0--2--0--0--2--0--|--2--0--0--0--0--0--0--0--|


                                                      
--------------------------|--------------------------|
--------------------------|--------------------------|
--------------------------|--------------------------|
--------------------------|--------------------------|
--4--------4--------4-----|--4-----------------------|
--2--0--0--2--0--0--2--0--|--2--0--0--0--0--0--0--0--|


                                                                              
--------------------------|-----------------------|--------------------------|
--------------------------|-----------------------|--------------------------|
--------------------------|-----------------------|--------------------------|
--------------------------|-----------------------|--------------------------|
--4--------4--------4-----|--4-----------5--------|--4--5--------5--4--------|
--2--0--0--2--0--0--2--0--|--2--5--6--7-----------|--2--3--0--0--3--2--0--0--|


                                                                          
--------------------------|--------------------------|-------------------|
--------------------------|--------------------------|-------------------|
--------------------------|--------------------------|-------------------|
--------------------------|--------------------------|-------------------|
--4--5--------5--4--------|--4--5--------5--4--------|--5----------------|
--2--3--0--0--3--2--0--0--|--2--3--0--0--3--2--0--0--|--3----------------|


                                                      
--------------------------|--------------------------|
--------------------------|--------------------------|
--------------------------|--------------------------|
--------------------------|--------------------------|
--4--5--------5--4--------|--4--5--------5--4--------|
--2--3--0--0--3--2--0--0--|--2--3--0--0--3--2--0--0--|


                                                                          
--------------------------|-------------------|--------------------------|
--------------------------|-------------------|--------------------------|
--------------------------|-------------------|--------------------------|
--------------------------|-------------------|--------------------------|
--4--5--------5--4--------|--4----------------|--4--5--------5--4--------|
--2--3--0--0--3--2--0--0--|--2----------------|--2--3--0--0--3--2--0--0--|


                                                                          
--------------------------|--------------------------|-------------------|
--------------------------|--------------------------|-------------------|
--------------------------|--------------------------|-------------------|
--------------------------|--------------------------|-------------------|
--4--5--------5--4--------|--4--5--------5--4--------|--5----------------|
--2--3--0--0--3--2--0--0--|--2--3--0--0--3--2--0--0--|--3----------------|


                                                      
--------------------------|--------------------------|
--------------------------|--------------------------|
--------------------------|--------------------------|
--------------------------|--------------------------|
--4--5--------5--4--------|--4--5--------5--4--------|
--2--3--0--0--3--2--0--0--|--2--3--0--0--3--2--0--0--|


                                                                          
--------------------------|-------------------|--------------------------|
--------------------------|-------------------|--------------------------|
--------------------------|-------------------|--------------------------|
--------------------------|-------------------|--4--5--------5--4--------|
--4--5--------5--4--------|--4----------------|--2--3--------3--2--------|
--2--3--0--0--3--2--0--0--|--2----------------|--------0--0--------0--0--|


                                                                          
--------------------------|--------------------------|-------------------|
--------------------------|--------------------------|-------------------|
--------------------------|--------------------------|-------------------|
--4--5--------5--4--------|--4--5--------5--4--------|--5----------------|
--2--3--------3--2--------|--2--3--------3--2--------|--3----------------|
--------0--0--------0--0--|--------0--0--------0--0--|-------------------|


                                                      
--------------------------|--------------------------|
--------------------------|--------------------------|
--------------------------|--------------------------|
--4--5--------5--4--------|--4--5--------5--4--------|
--2--3--------3--2--------|--2--3--------3--2--------|
--------0--0--------0--0--|--------0--0--------0--0--|


                                                                          
--------------------------|-------------------|--------------------------|
--------------------------|-------------------|--------------------------|
--------------------------|-------------------|--------------------------|
--4--5--------5--4--------|--4----------------|--4--5--------5--4--------|
--2--3--------3--2--------|--2----------------|--2--3--------3--2--------|
--------0--0--------0--0--|-------------------|--------0--0--------0--0--|


                                                                          
--------------------------|--------------------------|-------------------|
--------------------------|--------------------------|-------------------|
--------------------------|--------------------------|-------------------|
--4--5--------5--4--------|--4--5--------5--4--------|--5----------------|
--2--3--------3--2--------|--2--3--------3--2--------|--3----------------|
--------0--0--------0--0--|--------0--0--------0--0--|-------------------|


                                                      
--------------------------|--------------------------|
--------------------------|--------------------------|
--------------------------|--------------------------|
--4--5--------5--4--------|--4--5--------5--4--------|
--2--3--------3--2--------|--2--3--------3--2--------|
--------0--0--------0--0--|--------0--0--------0--0--|


                                                                     
--------------------------|-------------------|---------------------|
--------------------------|-------------------|---------------------|
--------------------------|-------------------|---------------------|
--4--5--------5--4--------|--4----------------|---------------------|
--2--3--------3--2--------|--2----------------|--8------7------8----|
--------0--0--------0--0--|-------------------|--6------5------6----|


                                                                             
----------------------|--------------------------|--------------------------|
----------------------|--------------------------|--------------------------|
----------------------|--------------------------|--------------------------|
----------------------|--------------------------|--------------------------|
----10------8----7----|--2-----------------------|--------------------------|
----8-------6----5----|--0--0--0--0--0--0--0--0--|--0--0--0--0--0--0--0--0--|


                                                                                
---------------------|----------------------|----------------------------------|
---------------------|----------------------|----------------------------------|
---------------------|----------------------|----------------------------------|
---------------------|----------------------|----------------------------------|
--8------7------8----|----10------8----7----|--2-------------------------------|
--6------5------6----|----8-------6----5----|--0-0-0-0-0-0-0-0-0-0-0-0-0-0-0-0-|


                                                                                
----------------------------------|---------------------|----------------------|
----------------------------------|---------------------|----------------------|
----------------------------------|---------------------|----------------------|
----------------------------------|---------------------|----------------------|
----------------------------------|--8------7------8----|----10------8----7----|
--0-0-0-0-0-0-0-0-0-0-0-0-0-0-0-0-|--6------5------6----|----8-------6----5----|


                                                                            
--------------------------|--------------------------|---------------------|
--------------------------|--------------------------|---------------------|
--------------------------|--------------------------|---------------------|
--------------------------|--------------------------|---------------------|
--2-----------------------|--------------------------|--8------7------8----|
--0--0--0--0--0--0--0--0--|--0--0--0--0--0--0--0--0--|--6------5------6----|


                                                              
----------------------|-------------------|------------------|
----------------------|-------------------|------------------|
----------------------|-------------------|------------------|
----------------------|-------------------|------------------|
----10------8----7----|--2----------------|------------------|
----8-------6----5----|--0----------------|------------------|


                                                      
--------------------------|--------------------------|
--------------------------|--------------------------|
--------------------------|--------------------------|
--------------------------|--------------------------|
--4--------4--------4-----|--4-----------------------|
--2--0--0--2--0--0--2--0--|--2--0--0--0--0--0--0--0--|


                                                      
--------------------------|--------------------------|
--------------------------|--------------------------|
--------------------------|--------------------------|
--------------------------|--------------------------|
--4--------4--------4-----|--4-----------------------|
--2--0--0--2--0--0--2--0--|--2--0--0--0--0--0--0--0--|


                                                      
--------------------------|--------------------------|
--------------------------|--------------------------|
--------------------------|--------------------------|
--------------------------|--------------------------|
--4--------4--------4-----|--4-----------------------|
--2--0--0--2--0--0--2--0--|--2--0--0--0--0--0--0--0--|


                                                                              
--------------------------|-----------------------|--------------------------|
--------------------------|-----------------------|--------------------------|
--------------------------|-----------------------|--------------------------|
--------------------------|-----------------------|--------------------------|
--4--------4--------4-----|--4-----------5--------|--4--------4--------4-----|
--2--0--0--2--0--0--2--0--|--2--5--6--7-----------|--2--0--0--2--0--0--2--0--|


                                                      
--------------------------|--------------------------|
--------------------------|--------------------------|
--------------------------|--------------------------|
--------------------------|--------------------------|
--4-----------------------|--4--------4--------4-----|
--2--0--0--0--0--0--0--0--|--2--0--0--2--0--0--2--0--|


                                                      
--------------------------|--------------------------|
--------------------------|--------------------------|
--------------------------|--------------------------|
--------------------------|--------------------------|
--4-----------------------|--4--------4--------4-----|
--2--0--0--0--0--0--0--0--|--2--0--0--2--0--0--2--0--|


                                                      
--------------------------|--------------------------|
--------------------------|--------------------------|
--------------------------|--------------------------|
--------------------------|--------------------------|
--4-----------------------|--4--------4--------4-----|
--2--0--0--0--0--0--0--0--|--2--0--0--2--0--0--2--0--|


                                                              
--------------------------|----------------------------------|
--------------------------|----------------------------------|
--------------------------|----------------------------------|
--------------------------|----------------------------------|
--4-----------------------|----------------------------------|
--2--0--0--0--0--0--0--0--|--3-3-3-3-3-3-3-3-3-3-3-3-3-3-3-3-|


                                                                
----------------------------|----------------------------------|
----------------------------|----------------------------------|
----------------------------|----------------------------------|
----------------------------|----------------------------------|
------------------7----8----|----------------------------------|
--3-3-3-3-3-3-3-3-5----6----|--3-3-3-3-3-3-3-3-3-3-3-3-3-3-3-3-|


                                                                
----------------------------|----------------------------------|
----------------------------|----------------------------------|
----------------------------|----------------------------------|
----------------------------|----------------------------------|
------------------7----8----|----------------------------------|
--3-3-3-3-3-3-3-3-5----6----|--3-3-3-3-3-3-3-3-3-3-3-3-3-3-3-3-|


                                                                    
----------------------------|-------------------|------------------|
----------------------------|-------------------|------------------|
----------------------------|-------------------|------------------|
----------------------------|-------------------|------------------|
------------------7----8----|--4----------------|------------------|
--3-3-3-3-3-3-3-3-5----6----|--2----------------|------------------|


                                                                
----------------------------------|----------------------------|
----------------------------------|----------------------------|
----------------------------------|----------------------------|
----------------------------------|----------------------------|
----------------------------------|------------------7----8----|
--3-3-3-3-3-3-3-3-3-3-3-3-3-3-3-3-|--3-3-3-3-3-3-3-3-5----6----|


                                                                
----------------------------------|----------------------------|
----------------------------------|----------------------------|
----------------------------------|----------------------------|
----------------------------------|----------------------------|
----------------------------------|------------------7----8----|
--3-3-3-3-3-3-3-3-3-3-3-3-3-3-3-3-|--3-3-3-3-3-3-3-3-5----6----|


                                                                
----------------------------------|----------------------------|
----------------------------------|----------------------------|
----------------------------------|----------------------------|
----------------------------------|----------------------------|
----------------------------------|------------------7----8----|
--3-3-3-3-3-3-3-3-3-3-3-3-3-3-3-3-|--3-3-3-3-3-3-3-3-5----6----|


                                                                          
-------------------|------------------|----------------------------------|
-------------------|------------------|----------------------------------|
-------------------|------------------|----------------------------------|
-------------------|------------------|----------------------------------|
--4----------------|------------------|----------------------------------|
--2----------------|------------------|--3-3-3-3-3-3-3-3-3-3-3-3-3-3-3-3-|


                                                                
----------------------------|----------------------------------|
----------------------------|----------------------------------|
----------------------------|----------------------------------|
----------------------------|----------------------------------|
------------------7----8----|----------------------------------|
--3-3-3-3-3-3-3-3-5----6----|--3-3-3-3-3-3-3-3-3-3-3-3-3-3-3-3-|


                                                                
----------------------------|----------------------------------|
----------------------------|----------------------------------|
----------------------------|----------------------------------|
----------------------------|----------------------------------|
------------------7----8----|----------------------------------|
--3-3-3-3-3-3-3-3-5----6----|--3-3-3-3-3-3-3-3-3-3-3-3-3-3-3-3-|


                                                                    
----------------------------|-------------------|------------------|
----------------------------|-------------------|------------------|
----------------------------|-------------------|------------------|
----------------------------|-------------------|------------------|
------------------7----8----|--4----------------|------------------|
--3-3-3-3-3-3-3-3-5----6----|--2----------------|------------------|


                                                                
----------------------------------|----------------------------|
----------------------------------|----------------------------|
----------------------------------|----------------------------|
----------------------------------|----------------------------|
----------------------------------|------------------7----8----|
--3-3-3-3-3-3-3-3-3-3-3-3-3-3-3-3-|--3-3-3-3-3-3-3-3-5----6----|


                                                                
----------------------------------|----------------------------|
----------------------------------|----------------------------|
----------------------------------|----------------------------|
----------------------------------|----------------------------|
----------------------------------|------------------7----8----|
--3-3-3-3-3-3-3-3-3-3-3-3-3-3-3-3-|--3-3-3-3-3-3-3-3-5----6----|


                                                                
----------------------------------|----------------------------|
----------------------------------|----------------------------|
----------------------------------|----------------------------|
----------------------------------|----------------------------|
----------------------------------|------------------7----8----|
--3-3-3-3-3-3-3-3-3-3-3-3-3-3-3-3-|--3-3-3-3-3-3-3-3-5----6----|


                                                                  
-------------------|------------------|--------------------------|
-------------------|------------------|--------------------------|
-------------------|------------------|--------------------------|
-------------------|------------------|--------------------------|
--4----------------|------------------|--4--------4--------4-----|
--2----------------|------------------|--2--0--0--2--0--0--2--0--|


                                                      
--------------------------|--------------------------|
--------------------------|--------------------------|
--------------------------|--------------------------|
--------------------------|--------------------------|
--4-----------------------|--4--------4--------4-----|
--2--0--0--0--0--0--0--0--|--2--0--0--2--0--0--2--0--|


                                                      
--------------------------|--------------------------|
--------------------------|--------------------------|
--------------------------|--------------------------|
--------------------------|--------------------------|
--4-----------------------|--4--------4--------4-----|
--2--0--0--0--0--0--0--0--|--2--0--0--2--0--0--2--0--|


                                                                      
--------------------------|---------------------|-------------------||
--------------------------|---------------------|-------------------||
--------------------------|---------------------|-------------------||
--------------------------|---------------------|-------------------||
--4-----------------------|--4------4------4----|--4----------------||
--2--0--0--0--0--0--0--0--|--2------2------2----|--2----------------||


     
Добавлено: 12.12.2013
Вам также может быть интересно:
Другие материалы по этой песне:
  • Аккорды и текст

Страница создана 03.07.2012
http://primanota.ru/andralls/hate-chords.htm
Привет, Гость.
Предлагаем пройти революционный курс по гитаре.
Подарок от PrimaNota.Ru, забирай!