PrimaNota.ru - самый крупный в мире бесплатный архив песенных текстов, аккордов, табулатур и нот


Andralls - Andralls On Fire - текст песни, таба, видео

Регистрация Запомнить меня
Войти через:  Facebook Google Twitter Vk Yandex Mail.ru

Andralls - Andralls On Fire - текст песни, таба, видео

Печатать
Просмотров: 70
Andralls
Andralls on Fire
>From the Album : Massacre, Corruption, Destruction...
By : andralls@yahoo.com.br
                                                                                
D||----------------------------------------------------------------------------|
A||----------------------------------------------------------------------------|
F||----------------------------------------------------------------------------|
C||--7------8------7------10--8--7------8--------------------------------------|
G||--5------6------5------8---6--5------6------7-6-5-5-5-5-5-5-7-6-5-5-5-5-5-5-|
D||-----0-0----0-0----0-0-----------0-0----0-0---------------------------------|


                                                                             
----------------------------------------------------------------------------|
----------------------------------------------------------------------------|
----------------------------------------------------------------------------|
--7------8------7------10--8--7------8--------------------------------------|
--5------6------5------8---6--5------6------4-4-4-4-5-5-5-5-6-6-6-6-7-7-7-7-|
-----0-0----0-0----0-0-----------0-0----0-0---------------------------------|


                                                                             
----------------------------------------------------------------------------|
----------------------------------------------------------------------------|
----------------------------------------------------------------------------|
--7------8------7------10--8--7------8--------------------------------------|
--5------6------5------8---6--5------6------7-6-5-5-5-5-5-5-7-6-5-5-5-5-5-5-|
-----0-0----0-0----0-0-----------0-0----0-0---------------------------------|


                                             
--------------------------------------------|
--------------------------------------------|
--------------------------------------------|
--7------8------7------10--8--7------8------|
--5------6------5------8---6--5------6------|
-----0-0----0-0----0-0-----------0-0----0-0-|


                                                                   
------------------------------------------------------------------|
------------------------------------------------------------------|
------------------------------------------------------------------|
----------------------------------4-4-4-4-5-5-5-5-6-6-6-6-7-7-7-7-|
--4-4-4-4-5-5-5-5-6-6-6-6-7-7-7-7---------------------------------|
------------------------------------------------------------------|


                                                                   
------------------------------------------------------------------|
------------------------------------------------------------------|
------------------------------------------------------------------|
----------------------------------5-5-5-5-6-6-6-6-7-7-7-7-8-8-8-8-|
--5-5-5-5-6-6-6-6-7-7-7-7-8-8-8-8---------------------------------|
------------------------------------------------------------------|


                                                        
---------------------------|---------------------------|
---------------------------|---------------------------|
---------------------------|---------------------------|
---------------------------|---------------------------|
--7-----8-----10-----8-----|--7-----8-----10-----8-----|
-----0-----0------0-----0--|-----0-----0------0-----0--|


                                                               
---------------------------|----------------------------------|
---------------------------|----------------------------------|
---------------------------|----------------------------------|
---------------------------|----------------------------------|
--7-----8-----10-----8-----|--5-5-5-5-5-5-5-5-5-5-5-5-5-5-5-5-|
-----0-----0------0-----0--|----------------------------------|


                                                        
---------------------------|---------------------------|
---------------------------|---------------------------|
---------------------------|---------------------------|
---------------------------|---------------------------|
--7-----8-----10-----8-----|--7-----8-----10-----8-----|
-----0-----0------0-----0--|-----0-----0------0-----0--|


                                                                                
---------------------------|-----------------------|---------------------------|
---------------------------|-----------------------|---------------------------|
---------------------------|-----------------------|---------------------------|
---------------------------|--7----8----9----10----|---------------------------|
--7-----8-----10-----8-----|--5----6----7----8-----|--7-----8-----10-----8-----|
-----0-----0------0-----0--|-----------------------|-----0-----0------0-----0--|


                                                        
---------------------------|---------------------------|
---------------------------|---------------------------|
---------------------------|---------------------------|
---------------------------|---------------------------|
--7-----8-----10-----8-----|--7-----8-----10-----8-----|
-----0-----0------0-----0--|-----0-----0------0-----0--|


                                                               
----------------------------------|---------------------------|
----------------------------------|---------------------------|
----------------------------------|---------------------------|
----------------------------------|---------------------------|
--5-5-5-5-5-5-5-5-5-5-5-5-5-5-5-5-|--7-----8-----10-----8-----|
----------------------------------|-----0-----0------0-----0--|


                                                                                
---------------------------|---------------------------|-----------------------|
---------------------------|---------------------------|-----------------------|
---------------------------|---------------------------|-----------------------|
---------------------------|---------------------------|--7----8----9----10----|
--7-----8-----10-----8-----|--7-----8-----10-----8-----|--5----6----7----8-----|
-----0-----0------0-----0--|-----0-----0------0-----0--|-----------------------|


                                                                              
-------------------------|-------------------------|-------------------------|
-------------------------|-------------------------|-------------------------|
-------------------------|-------------------------|-------------------------|
--------------------7----|--------------------8----|--------------------7----|
--2--1--1--3--1--1--5----|--2--1--1--3--1--1--6----|--2--1--1--3--1--1--5----|
-------------------------|-------------------------|-------------------------|


                                                             
----------------------------------|-------------------------|
----------------------------------|-------------------------|
----------------------------------|-------------------------|
----------------------------------|--------------------7----|
--0-0-0-0-0-0-0-0-0-0-0-0-0-0-0-0-|--2--1--1--3--1--1--5----|
----------------------------------|-------------------------|


                                                    
-------------------------|-------------------------|
-------------------------|-------------------------|
-------------------------|-------------------------|
--------------------8----|--------------------7----|
--2--1--1--3--1--1--6----|--2--1--1--3--1--1--5----|
-------------------------|-------------------------|


                                                               
----------------------------------|---------------------------|
----------------------------------|---------------------------|
----------------------------------|---------------------------|
----------------------------------|---------------------------|
--4-4-4-4-5-5-5-5-6-6-6-6-7-7-7-7-|--7-----8-----10-----8-----|
----------------------------------|-----0-----0------0-----0--|


                                                        
---------------------------|---------------------------|
---------------------------|---------------------------|
---------------------------|---------------------------|
---------------------------|---------------------------|
--7-----8-----10-----8-----|--7-----8-----10-----8-----|
-----0-----0------0-----0--|-----0-----0------0-----0--|


                                                               
----------------------------------|---------------------------|
----------------------------------|---------------------------|
----------------------------------|---------------------------|
----------------------------------|---------------------------|
--5-5-5-5-5-5-5-5-5-5-5-5-5-5-5-5-|--7-----8-----10-----8-----|
----------------------------------|-----0-----0------0-----0--|


                                                                                
---------------------------|---------------------------|-----------------------|
---------------------------|---------------------------|-----------------------|
---------------------------|---------------------------|-----------------------|
---------------------------|---------------------------|--7----8----9----10----|
--7-----8-----10-----8-----|--7-----8-----10-----8-----|--5----6----7----8-----|
-----0-----0------0-----0--|-----0-----0------0-----0--|-----------------------|


                                                        
---------------------------|---------------------------|
---------------------------|---------------------------|
---------------------------|---------------------------|
---------------------------|---------------------------|
--7-----8-----10-----8-----|--7-----8-----10-----8-----|
-----0-----0------0-----0--|-----0-----0------0-----0--|


                                                               
---------------------------|----------------------------------|
---------------------------|----------------------------------|
---------------------------|----------------------------------|
---------------------------|----------------------------------|
--7-----8-----10-----8-----|--5-5-5-5-5-5-5-5-5-5-5-5-5-5-5-5-|
-----0-----0------0-----0--|----------------------------------|


                                                        
---------------------------|---------------------------|
---------------------------|---------------------------|
---------------------------|---------------------------|
---------------------------|---------------------------|
--7-----8-----10-----8-----|--7-----8-----10-----8-----|
-----0-----0------0-----0--|-----0-----0------0-----0--|


                                                    
---------------------------|-----------------------|
---------------------------|-----------------------|
---------------------------|-----------------------|
---------------------------|--7----8----9----10----|
--7-----8-----10-----8-----|--5----6----7----8-----|
-----0-----0------0-----0--|-----------------------|


                                                                
-------------------------------|-------------------------------|
-------------------------------|-------------------------------|
-------------------------------|-------------------------------|
-------------------------------|-------------------------------|
--------------------------3----|--------------------------5----|
--0-0-0-0-0-0-0-0-0-0-0-0-1----|--0-0-0-0-0-0-0-0-0-0-0-0-3----|


                                                    
-------------------------------|-------------------|
-------------------------------|-------------------|
-------------------------------|-------------------|
-------------------------------|-------------------|
--------------------------3----|--2----------------|
--0-0-0-0-0-0-0-0-0-0-0-0-1----|--0----------------|


                                                                
-------------------------------|-------------------------------|
-------------------------------|-------------------------------|
-------------------------------|-------------------------------|
-------------------------------|-------------------------------|
--------------------------3----|--------------------------5----|
--0-0-0-0-0-0-0-0-0-0-0-0-1----|--0-0-0-0-0-0-0-0-0-0-0-0-3----|


                                                     
--------------------------------|-------------------|
--------------------------------|-------------------|
--------------------------------|-------------------|
--------------------------------|-------------------|
-----------------------------3--|--5----------------|
--0-0-0-0-0-0-0-0-0-0-0-0-0--1--|--3----------------|


                                                                      
----------------------------------|----------------------------------|
----------------------------------|----------------------------------|
----------------------------------|----------------------------------|
----------------------------------|----------------------------------|
----------------------------------|----------------------------------|
--5-5-5-5-6-6-6-6-8-8-8-8-6-6-6-6-|--5-5-5-5-6-6-6-6-8-8-8-8-6-6-6-6-|


                                                                      
----------------------------------|----------------------------------|
----------------------------------|----------------------------------|
----------------------------------|----------------------------------|
----------------------------------|----------------------------------|
----------------------------------|----------8-8-8-8-6-6-6-6-5-5-5-5-|
--5-5-5-5-6-6-6-6-8-8-8-8-6-6-6-6-|--5-5-5-5-------------------------|


                                                                      
----------------------------------|----------------------------------|
----------------------------------|----------------------------------|
----------------------------------|----------------------------------|
----------------------------------|----------------------------------|
----------------------------------|----------------------------------|
--5-5-5-5-6-6-6-6-8-8-8-8-6-6-6-6-|--5-5-5-5-6-6-6-6-8-8-8-8-6-6-6-6-|


                                                                      
----------------------------------|----------------------------------|
----------------------------------|----------------------------------|
----------------------------------|----------------------------------|
----------------------------------|----------------------------------|
----------------------------------|----------8-8-8-8-6-6-6-6-5-5-5-5-|
--5-5-5-5-6-6-6-6-8-8-8-8-6-6-6-6-|--5-5-5-5-------------------------|


                                                                            
------------------------|-------------------------|------------------------|
------------------------|-------------------------|------------------------|
------------------------|-------------------------|------------------------|
------------------------|-------------------------|------------------------|
---------------5--------|---------------7----5----|---------------5--------|
--0--0-0-0--0--3--------|--0--0-0-0--0--5----3----|--0--0-0-0--0--3--------|


                                                                           
-------------------------|-----------------------|------------------------|
-------------------------|-----------------------|------------------------|
-------------------------|-----------------------|------------------------|
-------------------------|-----------------------|------------------------|
---------------7----8----|--------------5--------|--------------7----5----|
--0--0-0-0--0--5----6----|--0--0--0--0--3--------|--0--0--0--0--5----3----|


                                                                           
-----------------------|--------------------------|-----------------------|
-----------------------|--------------------------|-----------------------|
-----------------------|--------------------------|-----------------------|
-----------------------|--------------------------|-----------------------|
--------------5--------|--------------------------|--------------5--------|
--0--0--0--0--3--------|--0--0--0--0--0--0--0--0--|--0--0--0--0--3--------|


                                                                          
------------------------|-----------------------|------------------------|
------------------------|-----------------------|------------------------|
------------------------|-----------------------|------------------------|
------------------------|-----------------------|------------------------|
--------------7----5----|--------------5--------|--------------7----8----|
--0--0--0--0--5----3----|--0--0--0--0--3--------|--0--0--0--0--5----6----|


                                                                         
-----------------------|------------------------|-----------------------|
-----------------------|------------------------|-----------------------|
-----------------------|------------------------|-----------------------|
-----------------------|------------------------|-----------------------|
--------------5--------|--------------7----5----|--------------5--------|
--0--0--0--0--3--------|--0--0--0--0--5----3----|--0--0--0--0--3--------|


                                                              
--------------------------|----------------------------------|
--------------------------|----------------------------------|
--------------------------|----------------------------------|
--------------------------|----------------------------------|
--------------------------|----------------------------------|
--0--0--0--0--0--0--0--0--|--0-0-0-0-0-0-0-0-0-0-0-0-0-0-0-0-|


                                                                      
----------------------------------|----------------------------------|
----------------------------------|----------------------------------|
----------------------------------|----------------------------------|
----------------------------------|----------------------------------|
----------------------------------|----------------------------------|
--0-0-0-0-0-0-0-0-0-0-0-0-0-0-0-0-|--0-0-0-0-0-0-0-0-0-0-0-0-0-0-0-0-|


                                                                   
-------------------------------|----------------------------------|
-------------------------------|----------------------------------|
-------------------------------|----------------------------------|
-------------------------------|----------------------------------|
--------------------------5----|----------------------------------|
--3-3-3-3-2-2-2-2-1-1-1-1-3----|--0-0-0-0-0-0-0-0-0-0-0-0-0-0-0-0-|


                                                                      
----------------------------------|----------------------------------|
----------------------------------|----------------------------------|
----------------------------------|----------------------------------|
----------------------------------|----------------------------------|
----------------------------------|----------------------------------|
--0-0-0-0-0-0-0-0-0-0-0-0-0-0-0-0-|--0-0-0-0-0-0-0-0-0-0-0-0-0-0-0-0-|


                                                            
-------------------------------|---------------------------|
-------------------------------|---------------------------|
-------------------------------|---------------------------|
-------------------------------|---------------------------|
--------------------------5----|--7-----8-----10-----8-----|
--3-3-3-3-2-2-2-2-1-1-1-1-3----|-----0-----0------0-----0--|


                                                        
---------------------------|---------------------------|
---------------------------|---------------------------|
---------------------------|---------------------------|
---------------------------|---------------------------|
--7-----8-----10-----8-----|--7-----8-----10-----8-----|
-----0-----0------0-----0--|-----0-----0------0-----0--|


                                                               
----------------------------------|---------------------------|
----------------------------------|---------------------------|
----------------------------------|---------------------------|
----------------------------------|---------------------------|
--5-5-5-5-5-5-5-5-5-5-5-5-5-5-5-5-|--7-----8-----10-----8-----|
----------------------------------|-----0-----0------0-----0--|


                                                                                
---------------------------|---------------------------|-----------------------|
---------------------------|---------------------------|-----------------------|
---------------------------|---------------------------|-----------------------|
---------------------------|---------------------------|--7----8----9----10----|
--7-----8-----10-----8-----|--7-----8-----10-----8-----|--5----6----7----8-----|
-----0-----0------0-----0--|-----0-----0------0-----0--|-----------------------|


                                                        
---------------------------|---------------------------|
---------------------------|---------------------------|
---------------------------|---------------------------|
---------------------------|---------------------------|
--7-----8-----10-----8-----|--7-----8-----10-----8-----|
-----0-----0------0-----0--|-----0-----0------0-----0--|


                                                               
---------------------------|----------------------------------|
---------------------------|----------------------------------|
---------------------------|----------------------------------|
---------------------------|----------------------------------|
--7-----8-----10-----8-----|--5-5-5-5-5-5-5-5-5-5-5-5-5-5-5-5-|
-----0-----0------0-----0--|----------------------------------|


                                                        
---------------------------|---------------------------|
---------------------------|---------------------------|
---------------------------|---------------------------|
---------------------------|---------------------------|
--7-----8-----10-----8-----|--7-----8-----10-----8-----|
-----0-----0------0-----0--|-----0-----0------0-----0--|


                                                               
---------------------------|----------------------------------|
---------------------------|----------------------------------|
---------------------------|----------------------------------|
---------------------------|----------------------------------|
--7-----8-----10-----8-----|--4-4-4-4-5-5-5-5-6-6-6-6-7-7-7-7-|
-----0-----0------0-----0--|----------------------------------|


                                                                        
-------------------|--------------------------|------------------------|
-------------------|--------------------------|------------------------|
-------------------|--------------------------|------------------------|
-------------------|--------------------------|------------------------|
--2----------------|--------------------------|--------------7----7----|
--0----------------|--1--0--0--2--0--0--3--0--|--0--4--0--0--5----5----|


                                                                               
--------------------------|------------------------|--------------------------|
--------------------------|------------------------|--------------------------|
--------------------------|------------------------|--------------------------|
--------------------------|------------------------|--------------------------|
--------------------------|--------------7----7----|--------------------------|
--1--0--0--2--0--0--3--0--|--0--4--0--0--5----5----|--1--0--0--2--0--0--3--0--|


                                                                             
------------------------|--------------------------|------------------------|
------------------------|--------------------------|------------------------|
------------------------|--------------------------|------------------------|
------------------------|--------------------------|------------------------|
--------------7----7----|--------------------------|--------------7----7----|
--0--4--0--0--5----5----|--1--0--0--2--0--0--3--0--|--0--4--0--0--5----5----|


                                                                               
--------------------------|------------------------|--------------------------|
--------------------------|------------------------|--------------------------|
--------------------------|------------------------|--------------------------|
--------------------------|------------------------|--------------------------|
--------------------------|--------------7----7----|--------------------------|
--1--0--0--2--0--0--3--0--|--0--4--0--0--5----5----|--1--0--0--2--0--0--3--0--|


                                                                             
------------------------|--------------------------|------------------------|
------------------------|--------------------------|------------------------|
------------------------|--------------------------|------------------------|
------------------------|--------------------------|------------------------|
--------------7----7----|--------------------------|--------------7----7----|
--0--4--0--0--5----5----|--1--0--0--2--0--0--3--0--|--0--4--0--0--5----5----|


                                                                        
--------------------------|------------------------|-------------------|
--------------------------|------------------------|-------------------|
--------------------------|------------------------|-------------------|
--------------------------|------------------------|-------------------|
--------------------------|--------------7----7----|--2----------------|
--1--0--0--2--0--0--3--0--|--0--4--0--0--5----5----|--0----------------|


                                                                               
--------------------------|------------------------|--------------------------|
--------------------------|------------------------|--------------------------|
--------------------------|------------------------|--------------------------|
--------------------------|------------------------|--------------------------|
--------------------------|--------------7----7----|--------------------------|
--1--0--0--2--0--0--3--0--|--0--4--0--0--5----5----|--1--0--0--2--0--0--3--0--|


                                                                             
------------------------|--------------------------|------------------------|
------------------------|--------------------------|------------------------|
------------------------|--------------------------|------------------------|
------------------------|--------------------------|------------------------|
--------------7----7----|--------------------------|--------------7----7----|
--0--4--0--0--5----5----|--1--0--0--2--0--0--3--0--|--0--4--0--0--5----5----|


                                                                               
--------------------------|------------------------|--------------------------|
--------------------------|------------------------|--------------------------|
--------------------------|------------------------|--------------------------|
--------------------------|------------------------|--------------------------|
--------------------------|--------------7----7----|--------------------------|
--1--0--0--2--0--0--3--0--|--0--4--0--0--5----5----|--1--0--0--2--0--0--3--0--|


                                                                             
------------------------|--------------------------|------------------------|
------------------------|--------------------------|------------------------|
------------------------|--------------------------|------------------------|
------------------------|--------------------------|------------------------|
--------------7----7----|--------------------------|--------------7----7----|
--0--4--0--0--5----5----|--1--0--0--2--0--0--3--0--|--0--4--0--0--5----5----|


                                                                               
--------------------------|------------------------|--------------------------|
--------------------------|------------------------|--------------------------|
--------------------------|------------------------|--------------------------|
--------------------------|------------------------|--------------------------|
--------------------------|--------------7----7----|--------------------------|
--1--0--0--2--0--0--3--0--|--0--4--0--0--5----5----|--1--0--0--2--0--0--3--0--|


                                                                             
------------------------|--------------------------|------------------------|
------------------------|--------------------------|------------------------|
------------------------|--------------------------|------------------------|
------------------------|--------------------------|--------------5----5----|
--------------7----7----|--------------------------|--------------3----3----|
--0--4--0--0--5----5----|--0--0--2--0--3--0--2--0--|--3--0--2--0------------|


                                                                               
--------------------------|------------------------|--------------------------|
--------------------------|------------------------|--------------------------|
--------------------------|------------------------|--------------------------|
--------------------------|--------------3----3----|--------------------------|
--------------------------|--------------1----1----|--------------------------|
--0--0--2--0--3--0--2--0--|--3--0--2--0------------|--0--0--2--0--3--0--2--0--|


                                                                             
------------------------|--------------------------|------------------------|
------------------------|--------------------------|------------------------|
------------------------|--------------------------|------------------------|
--------------5----5----|--------------------------|--------------3----3----|
--------------3----3----|--------------------------|--------------1----1----|
--3--0--2--0------------|--0--0--2--0--3--0--2--0--|--3--0--2--0------------|


                                                                               
--------------------------|------------------------|--------------------------|
--------------------------|------------------------|--------------------------|
--------------------------|------------------------|--------------------------|
--------------------------|--------------5----5----|--------------------------|
--------------------------|--------------3----3----|--------------------------|
--0--0--2--0--3--0--2--0--|--3--0--2--0------------|--0--0--2--0--3--0--2--0--|


                                                                             
------------------------|--------------------------|------------------------|
------------------------|--------------------------|------------------------|
------------------------|--------------------------|------------------------|
--------------3----3----|--------------------------|--------------5----5----|
--------------1----1----|--------------------------|--------------3----3----|
--3--0--2--0------------|--0--0--2--0--3--0--2--0--|--3--0--2--0------------|


                                                    
--------------------------|------------------------|
--------------------------|------------------------|
--------------------------|------------------------|
--------------------------|--------------3----3----|
--------------------------|--------------1----1----|
--0--0--2--0--3--0--2--0--|--3--0--2--0------------|


                                                                      
----------------------------------|----------------------------------|
----------------------------------|----------------------------------|
----------------------------------|----------------------------------|
----------------------------------|----------------------------------|
----------------------------------|----------------------------------|
--0-0-0-0-0-0-0-0-0-0-0-0-0-0-0-0-|--0-0-0-0-0-0-0-0-0-0-0-0-0-0-0-0-|


                                                                   
----------------------------------|-------------------------------|
----------------------------------|-------------------------------|
----------------------------------|-------------------------------|
----------------------------------|-------------------------------|
----------------------------------|--------------------------5----|
--0-0-0-0-0-0-0-0-0-0-0-0-0-0-0-0-|--3-3-3-3-2-2-2-2-1-1-1-1-3----|


                                                                      
----------------------------------|----------------------------------|
----------------------------------|----------------------------------|
----------------------------------|----------------------------------|
----------------------------------|----------------------------------|
----------------------------------|----------------------------------|
--0-0-0-0-0-0-0-0-0-0-0-0-0-0-0-0-|--0-0-0-0-0-0-0-0-0-0-0-0-0-0-0-0-|


                                                                   
----------------------------------|-------------------------------|
----------------------------------|-------------------------------|
----------------------------------|-------------------------------|
----------------------------------|-------------------------------|
----------------------------------|--------------------------5----|
--0-0-0-0-0-0-0-0-0-0-0-0-0-0-0-0-|--3-3-3-3-2-2-2-2-1-1-1-1-3----|


                                                                      
----------------------------------|----------------------------------|
----------------------------------|----------------------------------|
----------------------------------|----------------------------------|
----------------------------------|----------------------------------|
----------------------------------|----------------------------------|
--0-0-0-0-0-0-0-0-0-0-0-0-0-0-0-0-|--0-0-0-0-0-0-0-0-0-0-0-0-0-0-0-0-|


                                                                   
----------------------------------|-------------------------------|
----------------------------------|-------------------------------|
----------------------------------|-------------------------------|
----------------------------------|-------------------------------|
----------------------------------|--------------------------5----|
--0-0-0-0-0-0-0-0-0-0-0-0-0-0-0-0-|--3-3-3-3-2-2-2-2-1-1-1-1-3----|


                                                                      
----------------------------------|----------------------------------|
----------------------------------|----------------------------------|
----------------------------------|----------------------------------|
----------------------------------|----------------------------------|
----------------------------------|----------------------------------|
--0-0-0-0-0-0-0-0-0-0-0-0-0-0-0-0-|--0-0-0-0-0-0-0-0-0-0-0-0-0-0-0-0-|


                                                                   
----------------------------------|-------------------------------|
----------------------------------|-------------------------------|
----------------------------------|-------------------------------|
----------------------------------|--------------------------5----|
----------------------------------|--------------------------3----|
--0-0-0-0-0-0-0-0-0-0-0-0-0-0-0-0-|--3-3-3-3-2-2-2-2-1-1-1-1------|


                                                                    
-------------------|------------------------|----------------------|
-------------------|------------------------|----------------------|
-------------------|------------------------|----------------------|
-------------------|------------------------|----------------------|
--2----------------|-----5-------5-------5--|-------5----5----5----|
--0----------------|--0--3----0--3----0--3--|----0--3----3----3----|


                     
-------------------||
-------------------||
-------------------||
-------------------||
--2----------------||
--0----------------||

     
Добавлено: 02.10.2013
Другие материалы по этой песне:

Страница создана 15.03.2012
http://primanota.ru/andralls/andralls-on-fire-chords.htm
Привет, Гость.
Предлагаем пройти революционный курс по гитаре.
Подарок от PrimaNota.Ru, забирай!