PrimaNota.ru - самый крупный в мире бесплатный архив песенных текстов, аккордов, табулатур и нот


Anders Matthesen - Kefir Vs Stewart - таба, видео

Регистрация Запомнить меня
Войти через:  Facebook Google Twitter Vk Yandex Mail.ru

Anders Matthesen - Kefir Vs Stewart - таба, видео

Печатать
Просмотров: 124
    _____________________
   / Anders Matthesen   /
  / Kefir vs. Stewart  /
 / Jul på Vesterbro   /
/____________________/

Dette er rundgangen arrangeret for guitar og bas.
Denne rundgang spilles igennem 2 gange, da stryger-temaet er 2 rundgange.


          Fm                                  C7
G :---0-|-1---1-1-----1-3-|3/4--3-1-0-1-----|-----------------|-------------|
U :-1---|-----------1-----|-------------2---|-1---1-1-----1---|-------------|
I :-----|-----------------|---------------3-|-----------3-----|-------------|
T :-----|-----------------|-----------------|-----------------|-------------|
A :-----|-----------------|-----------------|-----------------|-------------|
R :-----|-----------------|-----------------|-----------------|-------------|
  :
B :-----|-----------------|-----------------|-----------------|-------------|
A :-----|-----------------|-----------------|-----------------|-------------|
S :-----|-----------------|-----------------|-----------------|-------------|
S :-----|-1-----1---------|-------------6---|-8---8-----------|-------------|

          Bbm                                 Fm
   -0-1-|-3---3-3---0-3-6-|-4---3-1-0-1-3-0-|-1---1-1---0-1---|-------------:
   -----|-----------------|-----------------|-----------------|-------------:
   -----|-----------------|-----------------|-----------------|-------------:
   -----|-----------------|-----------------|-----------------|-------------:
   -----|-----------------|-----------------|-----------------|-------------:
   -----|-----------------|-----------------|-----------------|-------------:
                                                                            :
   -----|-----------------|-----------------|-----------------|-------------:
   -----|-----------------|-----------------|-----------------|-------------:
   -----|-----------------|-----------------|-----------------|-------------:
   -4---|-6---6-----------|-------------0---|-1---------------|(1)----------:



 Dette er så stryger-temaet arrangeret for guitar:
|--------------|--------------|-----------------13-12-|-----------------------|
|--------------|--------------|-----------------------|-13-14-13-11-13~~-11---|
|--------------|--------------|-----------------------|-----------------------|
|--------------|--------------|-----------------------|-----------------------|
|--------------|--------------|-----------------------|-----------------------|
|--------------|--------------|-----------------------|-----------------------|

|--------------|--------------|-----13-12-------------|-----------------------|
|--------------|--------------|-----------13-14-13-11-|----11-13-14-13~~-11---|
|--------------|--------------|-----------------------|-14--------------------|
|--------------|--------------|-----------------------|-----------------------|
|--------------|--------------|-----------------------|-----------------------|
|--------------|--------------|-----------------------|-----------------------|

|--------------|--------------|-----------------13-12-|-----------------------|
|--------------|--------------|-----------------------|-13-14-13-11-13~~-11---|
|--------------|--------------|-----------------------|-----------------------|
|--------------|--------------|-----------------------|-----------------------|
|--------------|--------------|-----------------------|-----------------------|
|--------------|--------------|-----------------------|-----------------------|

|--------------|--------------|-----------------------|-15-16-15--------------|
|--------------|--------------|-----------------16-17-|----------16-17~~------|
|--------------|--------------|-----------------------|-----------------------|
|--------------|--------------|-----------------------|-----------------------|
|--------------|--------------|-----------------------|-----------------------|
|--------------|--------------|-----------------------|-----------------------|



+--------------------------------------------------------------------------+
Jon Sebastian Frederiksen - 4th /September /11
Just mail me at Maitinin@gmail.com with questions, comments and corrections!
Добавлено: 15.05.2012
Другие материалы по этой песне:
  • Аккорды и текст

Страница создана 15.05.2012
http://primanota.ru/anders-matthesen/kefir-vs-stewart-chords.htm
Привет, Гость.
Предлагаем пройти революционный курс по гитаре.
Подарок от PrimaNota.Ru, забирай!