PrimaNota.ru - самый крупный в мире бесплатный архив песенных текстов, аккордов, табулатур и нот


And You Will Know Us By The Trail Of Dead - Will You Smile Again - текст песни, таба, видео

Регистрация Запомнить меня
Войти через:  Facebook Google Twitter Vk Yandex Mail.ru

And You Will Know Us By The Trail Of Dead - Will You Smile Again - текст песни, таба, видео

Печатать
Просмотров: 103
...And you will know us by the Trail of Dead - Will you smile again?

tuning Guitar I: D A D G C Eb

tuning Guitar II: D A D G B E

Guitar I riff 1
|----------0----|
|------------0--|
|----5---5------|
|--3---3--------|
|---------------|
|---------------|
repeat all over the intro

Guitar 2 riff 1
|--------------------------------|
|--------------------------------|
|--------------------------------|
|--3-3--3-3--3-3--3-3--3-3--3-3--|
|--3-3--3-3--3-3--3-3--3-3--3-3--|
|--3-3--3-3--3-3--3-3--3-3--3-3--|

Guitar 2 riff 2
|-----------------------------------|
|-----------------------------------|
|-----------------------------------|
|--3-3-3-3-6-6-6-6-8-8-8-8-3-3-3-3--|
|--3-3-3-3-6-6-6-6-8-8-8-8-3-3-3-3--|
|--3-3-3-3-6-6-6-6-8-8-8-8-3-3-3-3--|

Guitar 2 riff 3
|-----------------------------------|
|-----------------------------------|
|-----------------------------------|
|--3-3-3-3-6-6-6-6-1-1-1-1-3-3-3-3--|
|--3-3-3-3-6-6-6-6-1-1-1-1-3-3-3-3--|
|--3-3-3-3-6-6-6-6-1-1-1-1-3-3-3-3--|

Guitar 2 riff 4
|-----------------------------------------------------------|
|-----------------------------------------------------------|
|-----------------------------------------------------------|
|--11-11-11-11-8-8-8-8-3-3-3-3-5-5-5-5-11-11-11-11-8-8-8-8--|
|--11-11-11-11-8-8-8-8-3-3-3-3-5-5-5-5-11-11-11-11-8-8-8-8--|
|--11-11-11-11-8-8-8-8-3-3-3-3-5-5-5-5-11-11-11-11-8-8-8-8--|

Guitar 1 riff 2
|--------0--------|
|----0-----0---0--|
|-----------------|
|--3---3-----3----|
|-----------------|
|-----------------|

Guitar 1&2 palm mute
|------------------------------------------------------------------|
|------------------------------------------------------------------|
|------------------------------------------------------------------|
|------------------------------------------------------------------|
|------------------------------------------------------------------|
|--3-3-3-3-3-3-3-3-6-6-6-6-1-1-1-1-3-3-3-3-3-3-3-3-3-3-3-3-3-3-3-3-|

|------------------------------------------------------------------|
|------------------------------------------------------------------|
|------------------------------------------------------------------|
|------------------------------------------------------------------|
|------------------------------------------------------------------|
|--3-3-3-3-3-3-3-3-6-6-6-6-6-6-6-6-8-8-8-8-1-1-1-1-3-3-3-3-3-3-3-3-|

|------------------------------------------------------------------|
|------------------------------------------------------------------|
|------------------------------------------------------------------|
|------------------------------------------------------------------|
|------------------------------------------------------------------|
|--3-3-3-3-6-6-6-6-1-1-1-1-8-8-8-8-3-3-3-3-6-6-6-6-1-1-1-1-3-3-3-3-|

|------------------------------------------------------------------|
|------------------------------------------------------------------|
|------------------------------------------------------------------|
|------------------------------------------------------------------|
|------------------------------------------------------------------|
|--3-3-3-3-3-3-3-3-6-6-6-6-6-6-6-6-8-8-8-8-1-1-1-1-3-3-3-3-3-3-3-3-|

|------------------------------------------------------------------|
|------------------------------------------------------------------|
|------------------------------------------------------------------|
|------------------------------------------------------------------|
|------------------------------------------------------------------|
|--3-3-3-3-3-3-3-3-6-6-6-6-6-6-6-6-8-8-8-8-1-1-1-1-3-3-3-3-3-3-3-3-|

|------------------------------------------------------------------|
|------------------------------------------------------------------|
|------------------------------------------------------------------|
|------------------------------------------------------------------|
|------------------------------------------------------------------|
|--3-3-3-3-6-6-6-6-1-1-1-1-8-8-8-8-3-3-3-3-6-6-6-6-1-1-1-1-3-3-3-3-|

|------------------------------------------------------------------|
|------------------------------------------------------------------|
|------------------------------------------------------------------|
|------------------------------------------------------------------|
|------------------------------------------------------------------|
|--3-3-3-3-6-6-6-6-1-1-1-1-8-8-8-8-3-3-3-3-6-6-6-6-1-1-1-1-3-3-3-3-|

|---------------------------|
|---------------------------|
|---------------------------|
|------------------3-3-3-3--|
|----------3-3-3-3-3-3-3-3--|
|--3-3-3-3-3-3-3-3-3-3-3-3--|
slowly release palm mute

Guitar 2 riff 5
|-------------------------------------------|
|-------------------------------------------|
|-------------------------------------------|
|--3-3-3-3-6-6-6-6-8-8-8-8-1-1-1-1-3-3-3-3--|
|--3-3-3-3-6-6-6-6-8-8-8-8-1-1-1-1-3-3-3-3--|
|--3-3-3-3-6-6-6-6-8-8-8-8-1-1-1-1-3-3-3-3--|

Guitar 2 riff 6
|-------------------------------------------------------------------|
|-------------------------------------------------------------------|
|-------------------------------------------------------------------|
|--3-3-3-3-6-6-6-6-1-1-1-1-8-8-8-8-3-3-3-3-6-6-6-6-1-1-1-1-3-3-3-3--|
|--3-3-3-3-6-6-6-6-1-1-1-1-8-8-8-8-3-3-3-3-6-6-6-6-1-1-1-1-3-3-3-3--|
|--3-3-3-3-6-6-6-6-1-1-1-1-8-8-8-8-3-3-3-3-6-6-6-6-1-1-1-1-3-3-3-3--|




Intro (0.00 - 1.27)

riff 1
riff 2
riff 1
riff 3
riff 1
riff 4
riff 1
riff 4
riff 1

(1.35 - 2.40)

Guitar 1 riff 2

Close the door and drift away
Into a sea of uncertainty
Where all your hopes and dreams
Have faded out of reach
Remember all the bad dreams
Are not far from reality
Would you write again for me?

(2.49 - 5.04)

Guitar 1&2 palm mute

And you awake and there you are
Not far off from the line before
And just how long did it take for you to understand
Where your feelings stopped and writing began
Convince yourself to take control
Play to the hilt this unlikely role

Remember all the bad dreams
Are not far from reality
Would you write again for me?
And who bade you stop this living art?
Have you forgotten just what you are?
If you don't want to then you could at least pretend
That the paper's your soul and your blood's the pen
And maybe then you'd see the light
And read the truth that you had to write

If heaven sent you downstream
Where banished eyes haven't been
Would you smile again for me?
You misread your fate line
Had long run out ahead of time
Would you write again for me?

(5.04 - 5.40)

riff 5

And you awake and there you are
Not far off from the line before
And just how long did it take for you to understand
Where your feelings stopped and writing began
Convince yourself to take control
Play to the hilt this unlikely role

(5.40 - 5.58)

riff 6

If heaven sent you downstream
Where banished eyes haven't been
Would you smile again for me?

(5.58 - 6.22)

Guitar 2 riff 2

Would you smile again for me?

(6.23 - )

Guitar 1 riff 1
Guitar 2 riff 1/riff 4/riff 1
Добавлено: 30.10.2013
Другие материалы по этой песне:
  • Аккорды и текст

Страница создана 24.02.2012
http://primanota.ru/and-you-will-know-us-by-the-trail-of-dead/will-you-smile-again-chords.htm
Привет, Гость.
Предлагаем пройти революционный курс по гитаре.
Подарок от PrimaNota.Ru, забирай!