PrimaNota.ru - самый крупный в мире бесплатный архив песенных текстов, аккордов, табулатур и нот


And You Will Know Us By The Trail Of Dead - Summer Of All Dead Souls - бас-таба, видео

Регистрация Запомнить меня
Войти через:  Facebook Google Twitter Vk Yandex Mail.ru

And You Will Know Us By The Trail Of Dead - Summer Of All Dead Souls - бас-таба, видео

Печатать
Просмотров: 160
Уроки эстрадного вокала в Санкт-Петербурге
Title: Summer of All Dead Souls
Artist: ...And You Will Know Us By the Trail of Dead
Album: Tao of the Dead
Tuning: Standard (EADG)
Tabbed by M.J. Nash (the99thaisle) on 2/9/11


[Intro] [0:04] [Rest for first three measures, then:]
G:|-------------------------------------------------|
D:|-------5-7-5-------------------------------------|
A:|---5-7-------7-0-5-------5-------5-7-5-3-5-------|
E:|-------------------------------------------------|
....1...2...3...4...1...2...3...4...1...2...3...4...

G:|-------------------------------------------------|
D:|-------------------------------------------------|
A:|-0-0-0-0-0-0-0-0-0-0-0-0-0-0-0-0-0-0-0-0-0-0-0-0-|
E:|-------------------------------------------------|

G:|-------------------------------------------------|
D:|-------5-7-5-------------------------------------|
A:|-0-5-7-------7-0-5-------5-------5-7-5-3-5-------|
E:|-------------------------------------------------|
....1...2...3...4...1...2...3...4...1...2...3...4...

G:|-------------------------------------------------|
D:|-------------------------------------------------|
A:|-0-0-0-0-0-0-0-0-0-0-0-0-0-0-0-0-0-0-0-0-0-0-0-0-|
E:|-------------------------------------------------|

G:|-------------------------------------------------|
D:|-------5-7-5-------------------------------------|
A:|-0-5-7-------7-0-5-------5-------5-7-5-3-5-------|
E:|-------------------------------------------------|
....1...2...3...4...1...2...3...4...1...2...3...4...

[0:25]
G:|---------5-------------------------------5-----------------------|
D:|-----------------------------------------------------------------|
A:|-3-----------------5-5-5-5-7-5-0-3-----------------5-5-5-5-7-5-0-|
E:|-----------------------------------------------------------------|
....1...2...3...4...1...2...3...4...1...2...3...4...1...2...3...4...

G:|-------------------------------------------------|
D:|-------------------------------------------------|
A:|-0-0-0-0-0-0-0-0-0-0-0-0-0-0-0-0-0-0-0-0-0-0-0-0-|
E:|-------------------------------------------------|

G:|-------------------------------------------------|
D:|-------------------------------------------------|
A:|-0-0-0-0-0-0-0-0-5-------5-------5-7-5-3-5-------|
E:|-------------------------------------------------|
....1...2...3...4...1...2...3...4...1...2...3...4...

G:|-------------------------------------------------|
D:|-------------------------------------------------|
A:|-0-0-0-0-0-0-0-0-0-0-0-0-0-0-0-0-0-0-0-0-0-0-0-0-|
E:|-------------------------------------------------|

G:|-------------------------------------------------|
D:|-------5-7-5-------------------------------------|
A:|-0-5-7-------7-0-5-------5-------5-7-5-3-5-------|
E:|-------------------------------------------------|
....1...2...3...4...1...2...3...4...1...2...3...4...

[0:47] [play 2x]
G:|---------5-------------------------------5-----------------------|
D:|-----------------------------------------------------------------|
A:|-3-----------------5-5-5-5-7-5-0-3-----------------5-5-5-5-7-5-0-|
E:|-----------------------------------------------------------------|
....1...2...3...4...1...2...3...4...1...2...3...4...1...2...3...4...


[Verse 1] [0:57, vocals come in]
G:|-----------------------------------------------------------------|
D:|-----------------------------------------------------------------|
A:|---------------------------------3-5---3-5---3-5---3-5-5-3---5---|
E:|-1---1---1---1-/-5-5-5-5-5-5-5-5---------------------------------|
....1...2...3...4...1...2...3...4...1...2...3...4...1...2...3...4...

G:|-----------------------------------------------------------------|
D:|-----------------------------------------------------------------|
A:|---------------------------------3-5---3-5---3-5---3-5---3---5---|
E:|-1---1---1---1-/-5---5---5---5-----------------------------------|

G:|-----------------------------------------------------------------|
D:|-----------------------------------------------------------------|
A:|---------------------------------3-5---3-5---3-5---3-5-5-3---5---|
E:|-1---1---1---1-/-5-5-5-5-5-5-5-5---------------------------------|

[1:14]
G:|---------5-------------------------------5-----------------------|
D:|-----------------------------------------------------------------|
A:|-3-----------------5-5-5-5-7-5-0-3-----------------5-5-5-5-7-5-0-|
E:|-----------------------------------------------------------------|
....1...2...3...4...1...2...3...4...1...2...3...4...1...2...3...4...

G:|-----------------------------------------------------------------|
D:|-----------------------------------------------------------------|
A:|---------------------------------3-5---3-5---3-5---3-5---3---5---|
E:|-1---1---1---1-/-5---5---5---5-----------------------------------|
....1...2...3...4...1...2...3...4...1...2...3...4...1...2...3...4...

G:|-----------------------------------------------------------------|
D:|-----------------------------------------------------------------|
A:|---------------------------------3-5---3-5---3-5---3-5-5-3---5---|
E:|-1---1---1---1-/-5---5---5---5-----------------------------------|

G:|-----------------------------------------------------------------|
D:|-----------------------------------------------------------------|
A:|---------------------------------3-5---3-5---3-5---3-5---3---5---|
E:|-1---1---1---1-/-5---5---5---5-----------------------------------|

[play 2x]
G:|---------5-------------------------------5-----------------------|
D:|-----------------------------------------------------------------|
A:|-3-----------------5-5-5-5-7-5-0-3-----------------5-5-5-5-7-5-0-|
E:|-----------------------------------------------------------------|
....1...2...3...4...1...2...3...4...1...2...3...4...1...2...3...4..


[Prechorus] [1:45]
G:|-----------------------------------------------------------------|
D:|-----------------------------------------------------------------|
A:|-3---3---3---3-0-------------------------------------------------|
E:|-----------------3---3---3---3-/-7-7-7---7---7---7---7---7---7---|
....1...2...3...4...1...2...3...4...1...2...3...4...1...2...3...4...

G:|-----------------------------------------------------------------|
D:|-----------------------------------------------------------------|
A:|-3---3---3---3-0-------------------------------------------------|
E:|-----------------3---3---3---3-/-7---7---7---7---7---7---7---7---|

G:|-----------------------------------------------------------------|
D:|-----------------------------------------------------------------|
A:|-3---3---3-5-3-0-------------------------------------------------|
E:|-----------------3---3---3---3-/-7---7---7---7---7---7---7---7---|

G:|-----------------------------------------------------------------|
D:|-----------------------------------------------------------------|
A:|-3---3---3---3-0-----------------5-7---5-7---557---5-7---5-5-7-0-|
E:|-----------------3---3---3---3-----------------------------------|
....1...2...3...4...1...2...3...4...1...2...3...4...1...2...3...4...


[Chorus] [2:06] [play first line 2x]
G:|-----------------------------------------------------------------|
D:|-------------------7-7-7-7-7-7-----------------------------------|
A:|-5-------5-----------------------5-7---5-7---557---5-7---5-5-7-0-|
E:|-----------------------------------------------------------------|
....1...2...3...4...1...2...3...4...1...2...3...4...1...2...3...4...

G:|-----------------------------------------------------------------|
D:|-----------------------------------------------------------------|
A:|-5---5-5-5---5---0-0-0-0-0-0-0-0-5-5-5-5-5-5-5-5-0-0-0-0-0-0-0-0-|
E:|-----------------------------------------------------------------|
....1...2...3...4...1...2...3...4...1...2...3...4...1...2...3...4...

G:|---------------------------------|
D:|---------------------------------|
A:|-5-5-5-5-5-5-5-5-0-0-0-0-0-0-0-0-|
E:|---------------------------------|
....1...2...3...4...1...2...3...4...

[Intro Riff] [2:24] [play these two lines 2x]
G:|-------------------------------------------------|
D:|-------------------------------------------------|
A:|-0-0-0-0-0-0-0-0-0-0-0-0-0-0-0-0-0-0-0-0-0-0-0-0-|
E:|-------------------------------------------------|

G:|-------------------------------------------------|
D:|-------5-7-5-------------------------------------|
A:|-0-5-7-------7-0-5-------5-------5-7-5-3-5-------|
E:|-------------------------------------------------|

[2:40] [then play this line 2x]
G:|---------5-------------------------------5-----------------------|
D:|-----------------------------------------------------------------|
A:|-3-----------------5-5-5-5-7-5-0-3-----------------5-5-5-5-7-5-0-|
E:|-----------------------------------------------------------------|
....1...2...3...4...1...2...3...4...1...2...3...4...1...2...3...4...


[Prechorus] [2:51]
G:|-----------------------------------------------------------------|
D:|-----------------------------------------------------------------|
A:|-3---3---3---3---------------------------------------------------|
E:|-----------------3---3---3---3-/-7---7---7---7---7---7---7---7---|
....1...2...3...4...1...2...3...4...1...2...3...4...1...2...3...4...

G:|-----------------------------------------------------------------|
D:|-----------------------------------------------------------------|
A:|-3---3---3---3-0-------------------------------------------------|
E:|-----------------3---3---3---3-/-7---7---7---7---7---7---7-7-5-7-|

G:|-----------------------------------------------------------------|
D:|-----------------------------------------------------------------|
A:|-3---3---3-5-3-0-------------------------------------------------|
E:|-----------------3---3---3---3-/-7---7---7---7---7---7---7---7---|

G:|-----------------------------------------------------------------|
D:|-----------------------------------------------------------------|
A:|-3---3---3---3-0-----------------5-7---5-7---557---5-7---5-5-7-0-|
E:|-----------------3---3---3---3-----------------------------------|
....1...2...3...4...1...2...3...4...1...2...3...4...1...2...3...4...


[Chorus] [3:11] [play first line 2x]
G:|-----------------------------------------------------------------|
D:|-------------------7-7-7-7-7-7-----------------------------------|
A:|-5-------5-----------------------5-7---5-7---557---5-7---5-5-7-0-|
E:|-----------------------------------------------------------------|
....1...2...3...4...1...2...3...4...1...2...3...4...1...2...3...4...

G:|-----------------------------------------------------------------|
D:|-------------------7-7-7-7-7-7-7-----------------7-7-7-7-7-7-7-7-|
A:|-5-------5-----------------------5-5-5-5-5-5-5-5-----------------|
E:|-----------------------------------------------------------------|
....1...2...3...4...1...2...3...4...1...2...3...4...1...2...3...4...

G:|-----------------------------------------------------------------|
D:|-----------------7-7-7-7-7-7-7-7---------------------------------|
A:|-5-5-5-5-5-5-5-5-----------------5-5-5-5-5-5-5-5-0-0-0-0-0-0-0-0-|
E:|-----------------------------------------------------------------|

G:|---------------------------------|
D:|---------------------------------|
A:|-5-5-5-5-5-5-5-/-1212121212121212| [12s, not 1s and 2s]
E:|---------------------------------|
....1...2...3...4...1...2...3...4...

G:|-----------------------------------------------------------------|
D:|-----------------------------------------------------------------|
A:|-557---[let ring, then rest til end]-----------------------------|
E:|-----------------------------------------------------------------|

Please rate, and enjoy!  - the99thaisle
Добавлено: 11.07.2012
Другие материалы по этой песне:
  • Аккорды и текст

Страница создана 11.07.2012
http://primanota.ru/and-you-will-know-us-by-the-trail-of-dead/summer-of-all-dead-souls-chords.htm
Привет, Гость.
Предлагаем пройти революционный курс по гитаре.
Подарок от PrimaNota.Ru, забирай!