PrimaNota.ru - самый крупный в мире бесплатный архив песенных текстов, аккордов, табулатур и нот


And You Will Know Us By The Trail Of Dead - Mistakes And Regrets - текст песни, таба, бас-таба, видео

Регистрация Запомнить меня
Войти через:  Facebook Google Twitter Vk Yandex Mail.ru

And You Will Know Us By The Trail Of Dead - Mistakes And Regrets - текст песни, таба, бас-таба, видео

Печатать
Просмотров: 156
Авторы: …And You Will Know Us by the Trail of Dead

Band - And You Will Know Us By The Trail Of Dead
Song - Mistakes And Regrets

Tuning: standard


                                            (Guitar 1)
e|-------------------------------------------------------------------------------------------------|
B|-------------------------------------------------------------------------------------------------|
G|-------------------------------------------------------------------------------------------------|
D|----------3----------------------5--------------------------2-----------4-----------0-----0----0-|
A|----1-----------1----1------3------------3-----3------2-----------2-----------2------------------|
E|--3---3-------3----3-----5-----5------5-----5------0-----0-----0-----0-----0-----0-----0-----0---|

e|-------------------------------------------------------------------------------------------------|
B|-------------------------------------------------------------------------------------------------|
G|-------------------------------------------------------------------------------------------------|
D|--------2---------4---------2-----4----4-------------2----------4------0-----------0----0------4-|
A|---0---------0---------0-----------------------2-----------2-----------------2-------------2-----|
E|-2---2-----2---2-----2---2-----2-----2------0-----0-----0-----0-----0-----0-----0-----0------4---|

e|-------------------------------------------------------------------------------------------------|
B|-------------------------------------------------------------------------------------------------|
G|-------------------------------------------------------------------------------------------------|
D|--------2---------4---------2-----4----4-------------2----------4------0-----------0----0------4-|
A|---0---------0---------0-----------------------2-----------2-----------------2-------------2-----|
E|-2---2-----2---2-----2---2-----2-----2------0-----0-----0-----0-----0-----0-----0-----0------4---|


                                             (Guitar 1)
e|-------------------------------------------------------------------------------------------------|
B|-------------------------------------------------------------------------------------------------|
G|-------------------------------------------------------------------------------------------------|
D|----------3----------------------5--------------------------2-----------4-----------0-----0----0-|
A|----1-----------1----1------3------------3-----3------2-----------2-----------2------------------|
E|--3---3-------3----3-----5-----5------5-----5------0-----0-----0-----0-----0-----0-----0-----0---|
 |                                                                                                 |
 |                                           (Guitar 2)                                            |
e|------------------------------------------------------------0-----------2------------------------|
B|------------------------------------------------------0-----------0-----------3-----0-----3----3-|
G|----------10---------------------12--------------------------------------------------------------|
D|----8-----------8----8-----10-----------10----12---2-----2-----2-----2-----2-----2-----2-----2---|
A|-10---10-----10---10----12----12-----12----12----------------------------------------------------|
E|-------------------------------------------------------------------------------------------------|

                                             (Guitar 1)
e|-------------------------------------------------------------------------------------------------|
B|-------------------------------------------------------------------------------------------------|
G|-------------------------------------------------------------------------------------------------|
D|--------2---------4---------2-----4----4-------------2----------4------0-----------0----0------4-|
A|---0---------0---------0-----------------------2-----------2-----------------2-------------2-----|
E|-2---2-----2---2-----2---2-----2-----2------0-----0-----0-----0-----0-----0-----0-----0------4---|
 |                                                                                                 |
 |                                           (Guitar 2)                                            |
e|--------0---------2---------0-----2----2-------------0----------2--------------------------------|
B|-----------------------------------------------0-----------0-----------3-----0-----3----3--------|
G|---2---------2---------2-----------------------------------------------------------------------9-|
D|-4---4-----4---4-----4---4-----4-----4------2-----2-----2-----2-----2-----2-----2-----2----9-----|
A|---------------------------------------------------------------------------------------------11--|
E|-------------------------------------------------------------------------------------------------|


      (Guitar 1)
    Bm  Em         F
e|--2---0----------1--|
B|--3---0----------1--|
G|--4---0--repeat--2--|
D|--4---2----------3--|
A|--2---2----------3--|
E|------0----------1--|
 |
 |                  (Guitar 2)
e|-----------------------------------------------|
B|-----------------------------------------------|
G|--14--16--------------------14--14--14--repeat-|
D|---------16--14--repeat--15--------------------|
A|-----------------------------------------------|
E|-----------------------------------------------|

(Guitar1)
     G
e|--15--|
B|--15--|
G|--16--|
D|--17--|
A|------|
E|------|

e|-------------------------------------------------------------------------------------------------|
B|-------------------------------------------------------------------------------------------------|
G|-------------------------------------------------------------------------------------------------|
D|----------3----------------------5--------------------------2-----------4-----------0-----0----0-|
A|----1-----------1----1------3------------3-----3------2-----------2-----------2------------------|
E|--3---3-------3----3-----5-----5------5-----5------0-----0-----0-----0-----0-----0-----0-----0---|

e|-------------------------------------------------------------------------------------------------|
B|-------------------------------------------------------------------------------------------------|
G|-------------------------------------------------------------------------------------------------|
D|--------2---------4---------2-----4----4-------------2----------4------0-----------0----0------4-|
A|---0---------0---------0-----------------------2-----------2-----------------2-------------2-----|
E|-2---2-----2---2-----2---2-----2-----2------0-----0-----0-----0-----0-----0-----0-----0------4---|

e|-------------------------------------------------------------------------------------------------|
B|-------------------------------------------------------------------------------------------------|
G|-------------------------------------------------------------------------------------------------|
D|--------2---------4---------2-----4----4-------------2----------4------0-----------0----0------4-|
A|---0---------0---------0-----------------------2-----------2-----------------2-------------2-----|
E|-2---2-----2---2-----2---2-----2-----2------0-----0-----0-----0-----0-----0-----0-----0------4---|

(Guitar1)
    Bm
e|--2--|
B|--3--|
G|--4--|
D|--4--|
A|--2--|
E|-----|

         (Guitar2)
e|-------------------------|
B|-------------------------|
G|--14--16-----------------|
D|---------16--14--repeat--|
A|-------------------------|
E|-------------------------|

           (Guitar3)
e|-----------------------------|
B|--15--19--17--15--19--17--15-|
G|-----------------------------|
D|-----------------------------|
A|-----------------------------|
E|-----------------------------|
Добавлено: 19.04.2012
Другие материалы по этой песне:
  • Аккорды и текст

Страница создана 07.04.2012
http://primanota.ru/and-you-will-know-us-by-the-trail-of-dead/mistakes-and-regrets-chords.htm
Привет, Гость.
Предлагаем пройти революционный курс по гитаре.
Подарок от PrimaNota.Ru, забирай!