PrimaNota.ru - самый крупный в мире бесплатный архив песенных текстов, аккордов, табулатур и нот


And You Will Know Us By The Trail Of Dead - Mark David Chapman - текст песни, таба, видео

Регистрация Запомнить меня
Войти через:  Facebook Google Twitter Vk Yandex Mail.ru

And You Will Know Us By The Trail Of Dead - Mark David Chapman - текст песни, таба, видео

Печатать
Просмотров: 131
-------------------------------------------------------------------------------
   ...And You Will Know US By The Trail Of Dead - Mark David Chapman
-------------------------------------------------------------------------------
Tabbed by: Laurie Hulme
E-mail: Songsforwalter@hotmail.co.uk

One my all time favourite tunes...

Crazy Sonic Youth esque tuining

Tuning: EGCDGD

Intro - all harmonics 
                                                          (strum 16th notes with drum roll)
                                                              1  e  &   a   X4
D|----------------------------|--------------------- ------|----------------|
G|----------------------------|----------------------------|-<12-12-12-12>--|
D|---------<12>---------<12>--|-----------<12>-------------|-<12-12-12-12>--|
C|--<12>----------------------|---<12>---------------------|-<12-12-12-12>--|
G|--<12>----------------------|---<12>---------------------|-<12-12-12-12>--|
E|----------------<12>--------|-------------------<12>-----|----------------|

Verse - listen to track for strumming and phrasing - here are the chord shapes...

D|-0-00-00-|-0-00-00|-0-00-00|-0-00-0-0-|-0--0--|
G|-0-00-00-|-0-00-00|-0-00-00|-0-00-0-0-|-0--0--|
D|-5-55-55-|-7-77-77|-2-22-22|-2-22-4-5-|-7--9--|
C|-7-77-77-|-9-99-99|-4-44-44|-4-44-6-7-|-9--11-|
G|-0-00-00-|-0-00-00|-0-00-00|-0-00-0-0-|-0--0--|
E|---------|--------|--------|----------|--------

D|-0-00-00-|-0-00-00|-0--0-0--0-0--|-0--0-0--0-0--|
G|-0-00-00-|-0-00-00|-0--0-0--0-0--|-0--0-0--0-0--|
D|-5-55-55-|-7-77-77|-9--9-9--9-0--|-9--9-9--9-9--|
C|-7-77-77-|-9-99-99|-11-1111-1111-|-11-1111-1111-|
G|-0-00-00-|-0-00-00|-0--0-0--0-0--|-0--0-0--0--0-| 
E|---------|--------|--------------|--------------|

End of vesre back to the 12th fret harmonic, triplet strumming pattern, listen to the record!
G|------------------------------------------------------------------|
G|--<121212>----<121212>---<121212>---<121212>-<121212>-<121212>----|
D|--<121212>----<121212>---<121212>---<121212>-<121212>-<121212>----|
C|--<121212>----<121212>---<121212>---<121212>-<121212>-<121212>----|
G|--<121212>----<121212>---<121212>---<121212>-<121212>-<121212>----|
E|------------------------------------------------------------------|

Bridge

C|------------------------------------------|--------------------------|
G|------------------------------------------|--------------------------|
D|----------------------<12>----------------|-------------------<12>---|
C|-------------<12>-----------<12>-----<12>-|---------<12>-------------|
G|-------<12>-------<12>-----------<12>-----|----<12>------<12>--------|
E|--<12>------------------------------------|-8------------------------|

Outro first part

C|-0-00--00000---0-00-|-0--00--00000---0-00---|
G|-0-00--00000---0-00-|-0--00--00000---0-00---|
D|-x-xx--77777/5-5-55-|-x--xx--22222/--0-00---|
C|-x-xx--99999/7-7-77-|-x--xx--44444/2-2-22---|
G|-0-00--00000---0-00-|-0--00--00000---0-00---|
E|--------------------|-----------------------|

After playing above twice bring in the harmony play twice... 

C|-0-00--0-0-0-0-0---0-00-|-0--00--00000---0-00--|
G|-0-00--0-0-0-0-0---0-00-|-0--00--22222---0-00--|
D|-x-xx--1010101010/-9-99-|-x--xx--22222/--0-00--|
C|-x-xx--9-9-9-9-9-/-7-77-|-x--xx--44444/2-2-22--|
G|-0-00--0-0-0-0-0---0-00-|-0--00--00000---0-00--|
E|------------------------|----------------------|

Loud part of outro...

C|----------|
G|----------|
D|----------|
C|----------|
G|-00000000-|
E|-88888888-|


C|----------------------------|
G|----------------------------|
D|----------------------------|
C|----------------------------|
G|--00000000-00000000---------|
E|--33333333/88888888---------|


One guitar tremolo picks...

C|----------------------------------------|
G|-12///////-14///////--16///////////////-|
D|----------------------------------------|
C|----------------------------------------|
A|----------------------------------------|
E|----------------------------------------|
Добавлено: 11.08.2015
Другие материалы по этой песне:
  • Аккорды и текст

Страница создана 09.04.2012
http://primanota.ru/and-you-will-know-us-by-the-trail-of-dead/mark-david-chapman-chords.htm
Привет, Гость.
Предлагаем пройти революционный курс по гитаре.
Подарок от PrimaNota.Ru, забирай!