PrimaNota.ru - самый крупный в мире бесплатный архив песенных текстов, аккордов, табулатур и нот


And You Will Know Us By The Trail Of Dead - Let It Dive - текст песни, бас-таба, видео

Регистрация Запомнить меня
Войти через:  Facebook Google Twitter Vk Yandex Mail.ru

And You Will Know Us By The Trail Of Dead - Let It Dive - текст песни, бас-таба, видео

Печатать
Просмотров: 149
LET IT DIVE
And You Will Know Us By The Trail Of Dead

Taken from the Interscope album Worlds Apart (2005)

Transcribed by: Damian Pamminger (TwitcheD_85@hotmail.com)

Standard tuning: E A D G

Fig. 1a
| -----------------------------------------------------------------|
| -----------------------------------------------------------------|
| -----------------------------------------------------------------|
|-3-----3----3--3---3-3/-5--5---3-----3----3--3---3-3/-5--0--------|

Fig. 1b
|------------------------------------------------------------------|
|------------------------------------------------------------------|
| ----------------------------------------------------3/-5-5-5-----|
| -3-----3----3--3---3-3/-5--5---3-----3----3--3---3---------------|

Fig. 2a
|---------------------------------------------------------------|------------|
|---------------------------------------------------------------|-REPEAT-----|
|-3-----3--3-3-3/-7--7--7-7-7-7\----------------------3/-5-5-5-|-------------|
| --------------------------------3-----3----3--3---3-----------|------------|

|-------------------------------------------|
|-------------------------------------------|
|-3-----3--3-3-3/-7--7--7-7-7-7\------------|
|---------------------------------3---------|

Fig. 2b
|---------------------------------------------------------------|---------------|
|---------------------------------------------------------------|--REPEAT-------|
|-3-----3--3-3-3/-7--7--7-7-7-7\----------------------3/-5-5-5-|-two-more-------|
| --------------------------------3-----3----3--3---3-----------|---times-------|

|-------------------------------------------|
|-------------------------------------------|
|-3-----3--3-3-3/-7--7--7-7-7-7\------------|
|---------------------------------3---------|
Добавлено: 14.05.2012
Другие материалы по этой песне:
  • Аккорды и текст

Страница создана 14.05.2012
http://primanota.ru/and-you-will-know-us-by-the-trail-of-dead/let-it-dive-chords.htm
Привет, Гость.
Предлагаем пройти революционный курс по гитаре.
Подарок от PrimaNota.Ru, забирай!