PrimaNota.ru - самый крупный в мире бесплатный архив песенных текстов, аккордов, табулатур и нот


And You Will Know Us By The Trail Of Dead - It Was There That I Saw You - текст песни, таба, видео

Регистрация Запомнить меня
Войти через:  Facebook Google Twitter Vk Yandex Mail.ru

And You Will Know Us By The Trail Of Dead - It Was There That I Saw You - текст песни, таба, видео

Печатать
Просмотров: 199
-------------------------------------------------------------------------------   
 IT WAS THERE THAT I SAW YOU - ...And You Will Know Us By The Trail Of Dead
-------------------------------------------------------------------------------
Tabbed by: TheCrook
Email: lastmenonthemoon@rocketmail.com

Tuning: EADGBe (standard)

Intro (x2):
e|----------------------------------------------------------------------|
B|----------------------------------------------------------------------|
G|----------------------------------------------------------------------|
D|----------------------------------------------------------------------|
A|----7-7-7---7-7-7---7-7-7---7-7-7---7-7-7---7-7-7---7-7-7---7-7-7-----|
E|--5-------5-------5-------5-------0-------0-------0-------0-----------|


Verse 1:

       A              Aadd9
It was there that I saw you
       A              Add9
And it was there that I came
       G                Dsus2
As evening sighs, rises up against the sky-line
       Csus2            Dsus2
Let me come and have my leis

          A              Aadd9
You were fair and fey as a sun that evil day
          A              Add9
We were bold and life was great
          G             Dsus2
But as time went on I wondered what was wrong
    Csus2        Dsus2     A
I wondered what became of you


Instrumental (corpus):

    A       G         A       F         Csus2     Dsus2   A#sus2

e|--0---0-1-0-|-------0-------0-------|--3--3--5--2-----|-0-----1-0------|
B|------------|-3-1-3---3-1-3---3-1---|-----------------|-----3----------|
G|------------|---------------------2-|-----------------|----------------|
D|------------|-----------------------|-----------------|----------------|
A|------------|-----------------------|-----------------|----------------|
E|------------|-----------------------|-----------------|----------------|
 
(NOTE: The first and last parts are slightly modified throughout the instrumental)


Instrumental end (x4):

    A#sus2           Csus2

e|--0----1-0-----1---0----1-0-----1-----|
B|-----3-------3--------3-------3-------|
G| -------------------------------------|
D|- ------------------------------------|
A|--------------------------------------|
E|--------------------------------------|


Intro reprise: 

(just like the first intro)


Verse 2:

        A              Add9    
Let me hold you in my arms dear
            A                       Add9
And let me melt in the heat of your gaze
            G                           Dsus2
And let the clock strike one, time and mind go marching on
            Csus2           Dsus2
Let our sense of selves decay

        A             Add9
It was there that I saw you
        A                  Add9
In the heat of a summer's embrace
        G                Dsus2
But as time went on I wondered what went wrong
   Csus2          Dsus2
I wondered what became
    Csus2      Dsus2
Became
    Csus2      Dsus2
Became
    Csus2      Dsus2
Became       Became
     A
Of you.


===== Hope it'll be useful. Enjoy =====
Добавлено: 18.04.2012
Другие материалы по этой песне:
  • Аккорды и текст

Страница создана 18.04.2012
http://primanota.ru/and-you-will-know-us-by-the-trail-of-dead/it-was-there-that-i-saw-you-chords.htm
Привет, Гость.
Предлагаем пройти революционный курс по гитаре.
Подарок от PrimaNota.Ru, забирай!