PrimaNota.ru - самый крупный в мире бесплатный архив песенных текстов, аккордов, табулатур и нот


And You Will Know Us By The Trail Of Dead - Aged Dolls - текст песни, таба, видео

Регистрация Запомнить меня
Войти через:  Facebook Google Twitter Vk Yandex Mail.ru

And You Will Know Us By The Trail Of Dead - Aged Dolls - текст песни, таба, видео

Печатать
Просмотров: 127
Aged Dolls
by ...AND YOU WILL KNOW US BY THE TRAIL OF DEAD

tabbed by berges
[berges@gmx.net]


Intro:
(with the wind section)

||--------------------------|-------------------------|
||o-------------------------|-------------------------|
||--------------------------|-------------------------|
||--14-14-14-14-14-14-14-14-|-14-14-14-14-14-14-14-14-|
||o-0--0--0--0--0--0--0--0--|-0--0--0--0--0--0--0--0--|
||--12-12-12-12-12-12-12-12-|-12-12-12-12-12-12-12-12-|

e-------------------------|-------------------------|
b-------------------------|-------------------------|
g-------------------------|-------------------------|
D-12-12-12-12-12-12-12-12-|-12-12-12-12-12-12-12-12-|
A-0--0--0--0--0--0--0--0--|-0--0--0--0--0--0--0--0--|
E-10-10-10-10-10-10-10-10-|-10-10-10-10-10-10-10-10-|

e-------------------------|-------------------------|
b-------------------------|-------------------------|
g-------------------------|-------------------------|
D-19-19-19-19-19-19-19-19-|-18-18-18-18-18-18-18-18-|
A-0--0--0--0--0--0--0--0--|-0--0--0--0--0--0--0--0--|
E-17-17-17-17-17-17-17-17-|-16-16-16-16-16-16-16-16-|

e-------------------------|--------------------------||
b-------------------------|-------------------------o||
g-------------------------|--------------------------||
D-14-14-14-14-14-14-14-14-|-14-14-14-14-14-14-14-14--||
A-0--0--0--0--0--0--0--0--|-0--0--0--0--0--0--0--0--o||
E-12-12-12-12-12-12-12-12-|-12-12-12-12-12-12-12-12--||


then...

A5           Am          A5          Am
e-----|-----|-0---|-----|-----|-----|-----|-----|
b-----|-----|-1---|-----|-----|-----|-1---|-----|
g-2---|-----|-2---|-----|-2---|-----|-2---|-----|
D-2---|-----|-2---|-----|-2---|-----|-2---|-----|
A-0---|-----|-0---|-----|-0---|-----|-0---|-----|
E-----|-----|-----|-----|-----|-----|-----|-----|


Verse:

  Am                           D/Am
||--------------|-------------|-------------|-------------|
||o-------------|-------------|-------------|-------------|
||--9--9--9--9--|-9--9--9--9--|-5--5--5--5--|-5--5--5--5--|
||--x--x--x--x--|-x--x--x--x--|-0--0--0--0--|-0--0--0--0--|
||o-0--0--0--0--|-0--0--0--0--|-------------|-------------|
||--------------|-------------|-------------|-------------|

F#/Am
e-------------|-------------|-------------|--------------||
b-------------|-------------|-------------|-------------o||
g-9--9--9--9--|-9--9--9--9--|-9--9--9--9--|-9--9--9--9---||
D-x--x--x--x--|-x--x--x--x--|-x--x--x--x--|-x--x--x--x---||
A-9--9--9--9--|-9--9--9--9--|-9--9--9--9--|-9--9--9--9--o||
E-------------|-------------|-------------|--------------||


Refrain:
(so i'm sweet on you...)

  Am                           D/Am
||--0--------0--|-------------|-0--------0--|-------------|
||o-1--------1--|-------------|-1--------1--|-------------|
||--2--------2--|-------------|-2--------2--|-------------|
||--2--------2--|-------------|-0--------0--|-------------|
||o-0--------0--|-------------|-------------|-------------|
||--------------|-------------|-------------|-------------|

F#/Am
e-0--------0--|-------------|-0--------0--|--------------||
b-1--------1--|-------------|-1--------1--|-------------o||
g-2--------2--|-------------|-2--------2--|--------------||
D-2--------2--|-------------|-2--------2--|--------------||
A-x--------x--|-------------|-x--------x--|-------------o||
E-2--------2--|-------------|-2--------2--|--------------||


Outro:
(play the notes with a delay effect.
each note has the lenght of one bar.)

e-----------------------------------------------------------------|
b-5---7---8---10--5---7---8---10--5---7---8---10--15--13--12--10--|
g-----------------------------------------------------------------|
D-----------------------------------------------------------------|
A(0)-the-fundamental-tones-----------------------(0)--------------|
E----played-by-the-bass-guitar---(1)------------------------------|

e-----------------------------------------------------------------|
b-3---1---0---1---5---5---5---5---5---7---8---10--5---7---8---10--|
g-----------------------------------------------------------------|
D-----------------------------------------------------------------|
A(0)-------------(0)-------------(0)-------------(0)--------------|
E-----------------------------------------------------------------|

e------------------------------------------------------------------|
b-5---7---8---10--15--13--12--13--3---1---0---1---5---5---5---5----|
g------------------------------------------------------------------|
D------------------------------------------------------------------|and so on...
A(1)-------------(0)-------------(0)-------------(0)---------------|
E------------------------------------------------------------------|
Добавлено: 25.04.2012
Другие материалы по этой песне:
  • Аккорды и текст

Страница создана 25.04.2012
http://primanota.ru/and-you-will-know-us-by-the-trail-of-dead/aged-dolls-chords.htm
Привет, Гость.
Предлагаем пройти революционный курс по гитаре.
Подарок от PrimaNota.Ru, забирай!