PrimaNota.ru - самый крупный в мире бесплатный архив песенных текстов, аккордов, табулатур и нот


And So I Watch You From Afar - These Riots Are Just The Beginning - таба, видео

Регистрация Запомнить меня
Войти через:  Facebook Google Twitter Vk Yandex Mail.ru

And So I Watch You From Afar - These Riots Are Just The Beginning - таба, видео

Печатать
Просмотров: 166
------------------------------------------------------------------------------
THESE RIOTS ARE JUST THE BEGINNING - And So I Watch You From Afar
-------------------------------------------------------------------------------
Tabbed by: Matthew O'Neill
Email: Matt9949@hotmail.co.uk

This is my first tab, so all criticism is constructive.

http://www.myspace.com/andsoiwatchyoufromafar
http://www.smalltownamerica.co.uk/artists.php/191/And+So+I+Watch+You+From+Afar

Tuning : Standard

0:08 - 1:05

Guitar 1 (x2)

e|---------------------------------------------------------------------------|
B|---------------------------------------------------------------------------|
G|---------------------------------------------------------------------------|
D|---------------------------------------------------------------------------|
A|---------------------------------------------------------------------------|
E|10----08----06----03----06----10----12----13----03----06-------------------|

1:05 - 1:35

Guitar 1 (x2)

e|050505050505--------------050505050505-------------------------------------|
B|-------------050505060606--------------050505060606-050505050505-030303----|
G|---------------------------------------------------------------------------|
D|---------------------------------------------------------------------------|
A|---------------------------------------------------------------------------|
E|---------------------------------------------------------------------------|

e|030303---------------------------------------------------------------------|
B|-------060606050505-030303030303-------------------------------------------|
G|---------------------------------------------------------------------------|
D|---------------------------------------------------------------------------|
A|---------------------------------------------------------------------------|
E|---------------------------------------------------------------------------|



0:36 - 1:35 

Guitar 2 (x4)

e|---------------------------------------------------------------------------|
B|---------------------------------------------------------------------------|
G|---------------------------------------------------------------------------|
D|--------10-------10-------10------------------10-------10------10----------|
A|---08------08-------08-------08---------08-------08-------08------08-------|
E|10----10------10-------10-------10---08----08-------08-------08------08----|

e|---------------------------------------------------------------------------|
B|---------------------------------------------------------------------------|
G|---------------------------------------------------------------------------|
D|---------10-------10-------10-----------------05----------------08---------|
A|---08-------08-------08-------08--------05-------05-------08-------08------|
E|06----06-------06-------06-------06--03----03-------03-06----06-------06---| 
 
1:35 - 2:02

Guitar 1

e|-----------------------------------------------------------------------------------|
B|-----------------------------------------------------------------------------------|
G|-----------------------------------------------------------------------------------|
D|-----------------------------------------------------------------------------------|
A|-----------------------------------------------------------------------------------|
E|#09#-#10#-#12#-#13#-#09#-#10#-#12#-#13#-#12#-#13#-#15#-#13#-#17#-#13#-#20#-#21#----|


e|-----------------------------------------------------------------------------------|
B|-----------------------------------------------------------------------------------|
G|-----------------------------------------------------------------------------------|
D|-----------------------------------------------------------------------------------|
A|-----------------------------------------------------------------------------------|
E|#09#-#10#-#12#-#13#-#15#-#13#-#12#-#10#-#20#-#18#-#17#-#15#-#17#-#15#-#13#-#12#-10-|

Guitar 2

e|-----------------------------------------------------------------------------------|
B|-----------------------------------------------------------------------------------|
G|-----------------------------------------------------------------------------------|
D|-----------------------------------------------------------------------------------|
A|-----------------------------------------------------------------------------------|
E|#09#-#10#-#12#-#13#-#09#-#10#-#12#-#13#-#09#-#10#-#12#-#13#-#17#-#17#-#15#-#13#----|

e|-----------------------------------------------------------------------------------|
B|-----------------------------------------------------------------------------------|
G|-----------------------------------------------------------------------------------|
D|-----------------------------------------------------------------------------------|
A|-----------------------------------------------------------------------------------|
E|#09#-#10#-#12#-#13#-#09#-#10#-#12#-#13#-#12#-#13#-#15#-#13#-#17#-#17#-#13#-#12#-10-|

2:02 - 2:45

Guitar 1 (x8)

e|09/10\09-------09/10\09----09/10\09-------09/10\09--------------------|
B|---------10-10----------10----------10-10----------10-10-10-----------|
G|----------------------------------------------------------------------|
D|----------------------------------------------------------------------|
A|----------------------------------------------------------------------|
E|----------------------------------------------------------------------|

e|09/10\09-------09/10\09----09/10\09-------09/10\09--------------------|
B|----------------------------------------------------------------------|
G|---------10-10----------10----------09-09----------08-08-08-----------|
D|----------------------------------------------------------------------|
A|----------------------------------------------------------------------|
E|----------------------------------------------------------------------|

2:18 - 2:45

Guitar 2 (x4)

e|#05#------------------------------------------------------------------|
B|------------#06#---------#05#---------#04#----------------------------|
G|----------------------------------------------------------------------|
D|----------------------------------------------------------------------|
A|----------------------------------------------------------------------|
E|----------------------------------------------------------------------|

e|09/10\09-------09/10\09----09/10\09-------09/10\09--------------------|
B|----------------------------------------------------------------------|
G|---------10-10----------10----------09-09----------08-08-08-----------|
D|----------------------------------------------------------------------|
A|----------------------------------------------------------------------|
E|----------------------------------------------------------------------|

2:55 - 3:03

Guitar 1 

e|09/10\09-------09/10\09----09/10\09-------09/10\09--------------------|
B|---------09-09----------09----------09-09----------09-09-09-----------|
G|----------------------------------------------------------------------|
D|----------------------------------------------------------------------|
A|----------------------------------------------------------------------|
E|----------------------------------------------------------------------|


e|09/10\09-------09/10\09----09/10\09-----------------------------------|
B|---------09-09----------09----------07/08\07----02------03------------|
G|----------------------------------------------------------------------|
D|----------------------------------------------------------------------|
A|----------------------------------------------------------------------|
E|----------------------------------------------------------------------|

And at this point i get too lazy. Will come back to it later.

| /  slide up
| \  slide down
| h  hammer-on
| p  pull-off
| ~  vibrato
| +  harmonic
| x  Mute note
| #  Tremelo picked
===============================================================================
Добавлено: 30.07.2012
Вам также может быть интересно:
Другие материалы по этой песне:

Страница создана 30.07.2012
http://primanota.ru/and-so-i-watch-you-from-afar/these-riots-are-just-the-beginning-chords.htm
Привет, Гость.
Предлагаем пройти революционный курс по гитаре.
Подарок от PrimaNota.Ru, забирай!