PrimaNota.ru - самый крупный в мире бесплатный архив песенных текстов, аккордов, табулатур и нот


And So I Watch You From Afar - Set Guitars To Kill - таба, видео

Регистрация Запомнить меня
Войти через:  Facebook Google Twitter Vk Yandex Mail.ru

And So I Watch You From Afar - Set Guitars To Kill - таба, видео

Печатать
Просмотров: 244
-----------------------------------------------------------------------------
                             SET GUITARS TO KILL
                        And So I Watch You From Afar
-----------------------------------------------------------------------------

I can't figure out what tuning the band uses.
This tabs shows how it might be played in standard tuning.

Tabbed by: Unsaidxpl
Email:unsaidxpl@bk.ru

==========================================================
Guitar 1

INTRO

Pick open A string, let it ring, then play this very slowly:

e|----------------------------------------------------------|
B|----------------------------------------------------------|
G|----------------------------------------------------------|
D|----------------------------------------------------------|  x2
A|-/12----\0-----/12----\0-----/12----\0-----/12----\0------|
E|----------------------------------------------------------|


RIFF 1

Consider making right note duration

...E..E..E..Triplet..S..E..E..S..S..S...E..E..E..Triplet..S..E..E..S..S..S
e|------------------------------------|---------------------------------------|
B|------------------------------------|---------------------------------------|
G|-11-12-14-12h14h12-11-12-14-12h14h12|-10-12-14-12h14h12-10-12-14-12h14h12---|
D|------------------------------------|---------------------------------------|
A|------------------------------------|---------------------------------------|
E|------------------------------------|---------------------------------------|   x2

...E..E..E..Triplet..S..E..E..S..E......E..E..E..Triplet..S..E..E..S..S..S
e|------------------------------------|---------------------------------------|
B|------------------------------------|---------------------------------------|
G|----12-14-12h14h12----12-14-12h14---|----12-14-12h14h12-14-17-14-12h14h12---|
D|-10----------------10---------------|---------------------------------------|
A|------------------------------------|-13------------------------------------|
E|------------------------------------|---------------------------------------|

After that: first section of RIFF 1 x4, third section, fourth section.
Then repeat the whole riff twice.

e|-------|
B|-8-8---|
G|-9-9---|
D|-------|  x32
A|-------|
E|-------|


SOLO

Make some guitar noise for one and a half bars, then slide through the fretboard.
Then play this twice using staccato:

...E..E..E..S..E..E..E..S..E..E..E..E..S..E..E..E..E..E..S.
e|----------13-15-17----------13-15-17----------13-15-17-17-|
B|-13-15-17----------13-15-17----------13-15-17-------------|
G|----------------------------------------------------------|
D|----------------------------------------------------------|
A|----------------------------------------------------------|
E|----------------------------------------------------------|

...S..S..S..E..S..S..S..E..E..S..E..E..S..E..E..Q......E...E...E....
e|-17\13-17\13------------------------------------------------------|
B|-------------13-13/17-17-17-17\13-13-13/17-17-17-----13--13--13---|
G|-----------------------------------------------------14--14--14---|
D|------------------------------------------------------------------|
A|------------------------------------------------------------------|
E|------------------------------------------------------------------|

After solo:

e|-------------------------------------|----------------|
B|-15--15--15---17--17--17---18--18--18|-20--20--20--20-|
G|-14--14--14---15--15--15---17--17--17|-19--19--19--19-| x5
D|-------------------------------------|----------------|
A|-------------------------------------|----------------|
E|-------------------------------------|----------------|

The next part is too hard to figure out, it sounds like very fast tremolo picking at the 
17th fret on e string with some additional noise

Then play this twice:

..............x3..............x1..
e|------15----------13------|----|
B|-17--------17-15-------15-|-13-|
G|--------------------------|----|
D|--------------------------|----|
A|--------------------------|----|
E|--------------------------|----|

RIFF 3

...E..E..S..E..E..S..E..E..S..E....E..E..S..E....E..E..S..S..E..
e|-------------------------------|-------------|----------------|
B|-------------------------------|-------------|-13-------------|
G|-------12-14-12----------------|-14-12-------|----14-12-12/14-|
D|-12-15----------15-12-15-10-10-|-------15-12-|----------------|
A|-------------------------------|-------------|----------------|
E|-------------------------------|-------------|----------------|

...E..E..S..E..E..S..E..E..S..E....E..E..S..E....Tremolo..Tremolo....
e|-------------------------------|-------------|--------------------|
B|-------------------------------|-------------|-13-------15--------|
G|-------12-14-12----------------|-14-12-------|--------------------|
D|-12-15----------15-12-15-10-10-|-------15-12-|--------------------|
A|-------------------------------|-------------|--------------------|
E|-------------------------------|-------------|--------------------|

Play it twice.

===========================================
GUITAR 2

INTRO (distortion)

In standart tuning you can play it like this

e|----------------------|
B|----------------------|
G|----------------------|
D|----------------------|
A|-12---12---12---12-10-|
E|-10---10---10---10-8--|


RIFF1

Repeat the first bar 3 times,then play the second. Then repeat the whole riff.

...S..S..E..E..E..S..S..E..E..E....S..S..S..S..S..S..S..S..S..S..S..S..S..S..S..S..
e|-------------------------------|-------------------------------------------------|
B|-15\10-10----10-15\10-10----10-|-13-13-13-13-11-11-11-11-15-15-15-15-10-10-10-10-|
G|----------12-------------12----|-------------------------------------------------|
D|-------------------------------|-------------------------------------------------|
A|-------------------------------|-------------------------------------------------|
E|-------------------------------|-------------------------------------------------|

Bridge

e|-------|
B|-8-8---|
G|-9-9---|
D|-------|  x8
A|-------|
E|-------|

When all other instruments stop for a few seconds:

e|----------------------------------|
B|-10-10---10-10-----10--13--10-----|
G|--9--9----9--9-----12--12--12-----| x2
D|----------------------------------|
A|----------------------------------|
E|----------------------------------|


RIFF 2
Played throughout the solo and after the short pause again

e|---------------------------------------|
B|---------------------------------------|
G|-9-7-----7-9---------12-12-14-12-------|
D|-7-7-----7-7---------10-10-10-10-------|  x3
A|---------------------------------------|
E|---------------------------------------|

e|---------------------------------------|
B|---------------------------------------|
G|-9-7-----7-9---------12---12---12---12-|
D|-7-7-----7-7---------10---10---10---10-|
A|---------------------------------------|
E|---------------------------------------|

RIFF 3
Repeat almost until ENDING

e|---------------------------------------|
B|---------------------------------------|
G|-14~--14~--14~--12~--14~--12~--10~--7~-|
D|--x----x----x----x----x----x----x---x--|
A|-12~--10~--12~--10~--12~--10~---8~--5~-|
E|---------------------------------------|

right before ending repeat this several times:

e|-------|
B|-------|
G|-/19---|
D|---x---|
A|-/17---|
E|-------|

ENDING (distortion)

....strumming.....E..E..E..E...
e|----|----|----|-------------|
B|----|----|----|-------------|
G|----|----|----|-------------|
D|----|----|----|-------------|
A|-12-|-12-|-12-|-12-12-10-10-|
E|-10-|-10-|-10-|-10-10--8--8-|

Maybe I forgot something, so leave a comment if you found something missed or
incorrect. And please rate if the tab helped you.

************************************

NOTES:
E - Eight note
S - Sixteenth note
Q- Quarter note
"Triplet" stands for 16th note triplet

************************************

| /   slide up
| \   slide down
| ~   vibrato
| x   Mute note
| b   Bend

************************************
Добавлено: 21.07.2012
Другие материалы по этой песне:

Страница создана 21.07.2012
http://primanota.ru/and-so-i-watch-you-from-afar/set-guitars-to-kill-chords.htm
Привет, Гость.
Предлагаем пройти революционный курс по гитаре.
Подарок от PrimaNota.Ru, забирай!