PrimaNota.ru - самый крупный в мире бесплатный архив песенных текстов, аккордов, табулатур и нот


And So I Watch You From Afar - S Is For Salamander - таба, видео

Регистрация Запомнить меня
Войти через:  Facebook Google Twitter Vk Yandex Mail.ru

And So I Watch You From Afar - S Is For Salamander - таба, видео

Печатать
Просмотров: 167
Уроки эстрадного вокала в Санкт-Петербурге
-------------------------------------------------------------------------------
                             S Is For Salamander - ASIWYFA
-------------------------------------------------------------------------------
Tabbed by: TheDookie
Email: gabriel.houx@yahoo.fr

Tuning: Dropped D Tuning

This is'nt perfect at all, but this incredible music is hard to tab.

Intro:
e|-------------------------------|
B|-------------------------------|
G|----4-------4b-----4b-----4b---|
D|--5-----3-3----3-3----3-3------|  (x7)
A|--5-----3-3----3-3----3-3------|
D|--5---0-3-3----3-3----3-3------|

The rythm changes between 0:31 - 0:35

Then: 0:36 - 0:48
e|---------------------------------------------------------|
B|---------------------------------------------------------|
G|----4--------4------4------4---4--------4------4------4b-|
D|--5-----3-3-3--3-3-3--3-3-3--5-----3--3---3--3---3--3----|
A|--5-----3-3-3--3-3-3--3-3-3--5-----3--3---3--3---3--3----|
D|--5---0-3-3-3--3-3-3--3-3-3--5---0-3--3---3--3---3--3----|

Then it goes on: 0:48 - 1:09
e|-------------------------------------------------------------------|
B|-------------------------------------------------------------------|
G|----4-------7------7------7--9--7--5------7-----7-----7------------|
D|--5-----3-3----3-3----3-3-------------3-3---3-3---3-3--------------|  (x2)
A|--5-----3-3----3-3----3-3-------------3-3---3-3---3-3--------------|
D|--5---0-3-3----3-3----3-3-------------3-3---3-3---3-3--------------|

Second part: 

Guitar 1: 1:09 - 1:42
e|--------------------------------------|
B|--------------------------------------|
G|--------------------------------------|
D|--12-12-12-12-5-5-5-5-8-8-8-8-8-8-8-8-|
A|--------------------------------------|
D|--12-12-12-12-3-3-3-3-8-8-8-8-8-8-8-8-|

Guitar 2: 1:14 - 1:18
e|---------------------|
B|---------------------|
G|-----15----12--------|
D|-----------------13--|  (x2)
A|--13----10-----------|
D|--------------13-----|

1:20 - 1:41
e|-------------------------------------------------------------|
B|----------------------------------------10h11h13-------------|
G|-----15----12------------------10h12h13----------------------|
D|-----------------13---10h12h13-------------------------------|  
A|--13----10---------------------------------------------------|
D|--------------13---------------------------------------------|

e|-------------------------------------------------------------|
B|----------------------10h11h13-------------------------------|
G|-----15----12------------------10h12h13----------------------|
D|-----------------13---------------------10h12h13-------------|  
A|--13----10---------------------------------------------------|
D|--------------13---------------------------------------------|

Can't figure out what Guitar 1 is doing then.

Guitar 2: 1:44 - 2:06
e|----------------------------------------------|
B|----------------------------------------------|
G|-----------------15-15-15--15-15-15p13-12h13--|
D|--------13-13-13------------------------------| 
A|--13-13---------------------------------------|
D|----------------------------------------------|

e|----------------------------------------------|
B|----------------------------------------------|
G|-----------------15-15-15---------------------|
D|--------13-13-13-----------15-15-15p13-12h13--| 
A|--13-13---------------------------------------|
D|----------------------------------------------|

2:13 - 2:31
e|--------------------|
B|----4---4---4-------|
G|--5---5---5---5-3p0-|
D|--------------------|
A|--------------------|
D|--------------------|

2:31 - 3:09
e|--------------------------|
B|--4-4-------4-4-------4---|
G|--5-5--3-3--5-5--3-3--5-3-|
D|--------------------------|
A|--------------------------|
D|--------------------------|

3:10 - 3:33
e|-------------------------------------------------------------|
B|----------------------------------------10h11h13-------------|
G|-----15----12------------------10h12h13----------------------|
D|-----------------13---10h12h13-------------------------------|  
A|--13----10---------------------------------------------------|
D|--------------13---------------------------------------------|

e|-------------------------------------------------------------|
B|----------------------10h11h13-------------------------------|
G|-----15----12------------------10h12h13----------------------|
D|-----------------13---------------------10h12h13-------------|  
A|--13----10---------------------------------------------------|
D|--------------13---------------------------------------------|

3:35 - 3:47 
e|--------------------------------------------------------------------------|
B|--------------------------------------------------------------------------|
G|--------------------------------------------------------------------------|
D|-----------8---------------8---------------8------------------------------|
A|----8h9h10--10-10---8h9h10--10-10---8h9h10--10-10-------------------------|
D|-10-----------------------------------------------------------------------|

Can't figure out what's happening then :(

3:54 - 3:59
e|--------------------------------------------------------------------------|
B|--------------------------------------------------------------------------|
G|--------------------------------------------------------------------------|
D|-----------8---------------8---------------8------------------------------|
A|----8h9h10--10-10---8h9h10--10-10---8h9h10--10-10-------------------------|
D|-10-----------------------------------------------------------------------|




************************************

| /   slide up
| \   slide down
| h   hammer-on
| p   pull-off
| ~   vibrato
| +   harmonic
| x   Mute note
| b   Bend
| pb  Pre-bend
| br  Bend release
| pbr Pre-bend release
| brb Bend release bend

************************************
Добавлено: 25.05.2012
Другие материалы по этой песне:
  • Аккорды и текст

Страница создана 25.05.2012
http://primanota.ru/and-so-i-watch-you-from-afar/s-is-for-salamander-chords.htm
Привет, Гость.
Предлагаем пройти революционный курс по гитаре.
Подарок от PrimaNota.Ru, забирай!