PrimaNota.ru - самый крупный в мире бесплатный архив песенных текстов, аккордов, табулатур и нот


And Hell Followed With - This Night Is The Coroners - таба, видео

Регистрация Запомнить меня
Войти через:  Facebook Google Twitter Vk Yandex Mail.ru

And Hell Followed With - This Night Is The Coroners - таба, видео

Печатать
Просмотров: 138
-------------------------------------------------------------------------------
The Night Is The Coroners-And Hell Followed with
-------------------------------------------------------------------------------
Tabbed by: NicIsbRuTaL (youtube.com/NicIsbRuTaL1)
So its all by ear so there are might be some mistakes I tried to get it as 
accurate as possible, and I fully don't know the solos, I will re-tab them later 
once I get them correct. I know a lot of people want to learn this song so I 
decided to tab it haha 
Hope you enjoy and message me if you need help oh and ignore the — haha 

Tuning: Drop A

B|-----------------------------------------------------------------------------|
F#|----------------------------------------------------------------------------|
D|-----------------------------------------------------------------------------|
A|-----------------------------------------------------2t----------------------|
E|-----2-1----4t---2-1---4t-----2-1---4t----2-1---4t---------------------------|
A|-----2-1---------2-1----------2-1---------2-1--------------------------------|


B|-----------------------------------------------------------------------------------|
F#|----------------------------------------------------------------------------------|
D|-----------------------------------------------------------------------------------|
A|-----------------------------------------------------------------------------------|
E|-------2-1—4t----2-1---4t----------2-1-4t---2-1—4t-----1t--------------------------|
A|-------2-1-------2-1---------------2-1------2-1------------------------------------|



B|-----------------------------------------------------------------------------------|
F#|----------------------------------------------------------------------------------|
D|-----------------------------------------------------------------------------------|
A|----------2t----------2t------2t-------2t—5t-------2t-----------2t------2t---------|
E|-----2-1--------2-1------2-1-------2-1---------2-1---------2-1------2-1-----2-1----|
A|-----2-1--------2-1------2-1-------2-1---------2-1---------2-1------2-1-----2-1----|
                      

Tremolo this part

B|-----------------------------------------------------------------|
F#|----------------------------------------------------------------|
D|-----------------------------------------------------------------|    x2
A|-----------------------------------------------------------------|
E|--------4---------4-5-4-------4-------1-1--1-1-------------------|
A|---3-2------3-2----------3-2----3-2---2-2--2-2-------------------|
                                       Pm pm pm pm





B|---------------|
F#|--------------|
D|---------------| x4
A|---------------|
E|---3-2---------|
A|---4-3---------|
    Pm pm 
                          




 Tremolo this part except the end breakdown part

B|-----------------------------------------------------------------------------|
F#|----------------------------------------------------------------------------|
D|-----------------------------------------------------------------------------|
A|----------------3-2----------------------------------------------------------|
E|-------4---4-5------4----------1-1----1-1------------------------------------|
A|---3-2---3------------3--2-----2-2----2-2------------------------------------|
                                                           Pm pm          pm pm 

B|------------------------|
F#|-----------------------|
D|------------------------|
A|------------------------|
E|------3--2--------------|
A|------4--3--------------|
       Pm pm  

B|----------------|
F#|---------------|
D|-------10-------|
A|-------x--------|
E|-------8-V-------|
A|----------------|

B|---------------------------------------------------------------------------|
F#|--------------------------------------------------------------------------|
D|-----7/5\7----8-8/7\8------12---8---7/5\7------8-8/7\8---------------------|
A|-----x-x-x----x-x-x-x------x----x---x-x-x------x-x-x-x---------------------|
E|-----5/3\5----6-6/5\6------10---6---5/3\5------6-6/5\6---------------------|
A|----------------------------------------------------------------0----------|

                   :58-1:06 Chug pattern is easy to figure out
B|------------|
F#------------|
D|------------|
A|--1---------|
E|--0---------|
A|--1---------|
    pm
                       1:06-1:14 Chug pattern is easy to figure out 
B|-------------|
F#-------------|
D|-------------|
A|---0---------|
E|---0---------|
A|---1---------|
     pm

B|---------------|
F#---------------|
D|---------------|
A|---------------|
E|-----3-2-3-2---|
A|-----4-3-4-3---|
      Pm pm pm pm


Tremolo this part... 
B|--------------------------------------------------------------------------------|
F#--------------------------------------------------------------------------------|
D|--------------------------------------------------------------------------------|
A|------------------------------------------------------------------------5--7----|
E|---1---------1---2------1----------3--3--1----------1---2----1----------x--x----|
A|-----3-1-0-----3---3------3-1-0-1--4--2----3-1-0------3---3----3-1-0-1--3--5----|
                                    Pm pm 

… And this part
B|----------------------------------------------------------------------------------|
F#|---------------------------------------------------------------------------------|
D|----------------------------------------------------------------------------------|
A|-----------------------------------------------------------------------1-3-4------|
E|-----4-------5---6------4----------3--3----4-------5---6----4----------1-3-4------|
A|-------3-1-0---3---3------3-1-0-1--4--2------3-1-0---3---3----3-1-0-1--1-3-4------|
                                    Pm pm                               pm pm pm


Just play an open note on and you'll figure the chug pattern
B|-----------------------------------------------------------------------------------|
F#|----------------------------------------------------------------------------------|
D|-----------------------------------------------------------------------------------|
A|---------1-4-1------------------1-3-4--------1-4-1---------------------------------|
E|---------1-4-1------------------1-3-4--------1-4-1---------------------------------|
A|--0------1-4-1----0—1b--0-1b-0--1-3-4-----0--1-4-1---0-1b-0-1b—0-1b-0-1b-0-0-0-0-0-|
          Pm pm pm               pm pm pm 


CHUGGGGGGG 1:50-2:22
B|------------|
F#|-----------|
D|------------|
A|---1--------|
E|---0--------|
A|---1--------|

Tremolo this part
B|--------------------------------------|
F#|----10-11-10-8-----------------------|
D|----------------10-9-10-7-9-10-14-15--|
A|--------------------------------------|
E|--------------------------------------|
A|--------------------------------------|





Like I said the solo is alittle off but heres how you play it the 1st and 3rd time 
B|---------------------20-22---------------------------20-22t-24-22/---------|
F#|--------------17-18--------------------------17-18------------------------|
D|---------17-19--------------------------17-19------------------------------|
A|---17-19---------------------------17-19-----------------------------------|
E|---------------------------------------------------------------------------|
A|---------------------------------------------------------------------------|
              1st time                         2nd time ????                     3rd time 

Now you have the end chug pretty self explanatory :) and at the end of each chug 
patter you play a break down chord haha
B|-----------------------------------|
F#|----------------------------------|
D|-----------------------------------|
A|-----0-----------------------0-----|
E|-----0-----------------------0-----|
A|-----0-----------------------1-----|

End solo is a bit sketchy also :/
B|------17--181718-15-----------------------17-181718-15----------------|
F#|--------------------17-20---22-20-18---------------17--20------------|
D|----------------------------------------------------------------22----|
A|----------------------------------------------------------------------|
E|----------------------------------------------------------------------|
A|----------------------------------------------------------------------|



B|------17--181718-15-----------------------17-181718-15------------------|
F#|--------------------17-20---22-20-18---------------17-18-20------------|
D|----------------------------------------------------------------22--21--|
A|------------------------------------------------------------------------|
E|------------------------------------------------------------------------|
A|------------------------------------------------------------------------|
Also you can watch cover videos to help you out and what not :)
I wanna cover the rest of this album and tab it out so stay on the look out haha 

Key:
t=tremolo
b=bend
v=vibrato 
Pm=palm mute
/=slide up
\=slide down
Добавлено: 07.04.2012
Другие материалы по этой песне:
  • Аккорды и текст

Страница создана 07.04.2012
http://primanota.ru/and-hell-followed-with/this-night-is-the-coroners-chords.htm
Привет, Гость.
Предлагаем пройти революционный курс по гитаре.
Подарок от PrimaNota.Ru, забирай!