PrimaNota.ru - самый крупный в мире бесплатный архив песенных текстов, аккордов, табулатур и нот


And Hell Followed With - The Pious Now Corrupt - таба, видео

Регистрация Запомнить меня
Войти через:  Facebook Google Twitter Vk Yandex Mail.ru

And Hell Followed With - The Pious Now Corrupt - таба, видео

Печатать
Просмотров: 140
Band:  And Hell Followed With
Song:  The Pious, Now Corrupt
Album: Domain

Tuning: Drop A [A,E,A,D,F#,B]

Intro A x1

[Slow, quiet part you can hardly hear]

B |---------------------------------------|
F#|---------------------------------------|
D |---------------------------------------|
A |---------------------------------------|
E |-55555555-8888-7777-55555555-8888-7777-|
A |---------------------------------------|

B |-----------------------------------------------|
F#|-----------------------------------------------|
D |-----------------------------------------------|
A |-----------------------------------------------|
E |----------8888-7777------------------8888-7777-|
A |-88888888-----------1010101010101010-----------|

Intro B x2

B |---------------------------------------|
F#|---------------------------------------|
D |---------------------------------------|
A |-0~~~~~~~~~~~~~~~~~~0~~~~~~~~~~~~~~~~~-|
E |-0~~~~~~~~~~~~~~~~~~0~~~~~~~~~~~~~~~~~-|
A |-0~~~~~~~~~~~~~~~~~~0~~~~~~~~~~~~~~~~~-|

B |---------------------------------------|
F#|---------------------------------------|
D |---------------------------------------|
A |-8~~~~~~~~~~~~~~~~~10~~~~~~~~~~~~~~~~~-|
E |-8~~~~~~~~~~~~~~~~~10~~~~~~~~~~~~~~~~~-|
A |-8~~~~~~~~~~~~~~~~~10~~~~~~~~~~~~~~~~~-|

On second time, guitar two plays this:

B |-------------------------------|
F#|-------------------------------|
D |----10----10-10-----14-12-9/10-|
A |-12----12--------12------------|
E |-------------------------------|
A |-------------------------------|

Pre-Solo x2

Something like this, played clean.

B |-------------------------------|
F#|-------------------------------|
D |----10----10-10-----14-12-9/10-|
A |-12----12--------12------------|
E |-------------------------------|
A |-------------------------------|

Solo

[GUITAR ONE]

B |---------------------------------------|
F#|---------------------------------------|
D |---------------------------------------|
A |---------------------------------------|
E |---------------------------------------|
A |-0000000000000000000000000000000000000-|

B |------------------------------------------|
F#|------------------------------------------|
D |------------------------------------------|
A |------------------------------------------|
E |------------------------------------------|
A |-8888888888888888101010101010101010101010-|

[GUITAR TWO]

B |------------------------------------------|
F#|-15tr~~~~~~~~~~~~~~~~~~~~~~~~~~~~~~~~~----|
D |------------------------------------------|
A |------------------------------------------|
E |------------------------------------------|
A |------------------------------------------|

B |-17tr~~~~~~~~/18\15tr~~~~~~~~~~~~~~~~~~~~-|
F#|------------------------------------------|
D |------------------------------------------|
A |------------------------------------------|
E |------------------------------------------|
A |------------------------------------------|

B |-12/13\12\\-------------------------------|
F#|------------13tr~~~~~/15tr~~~\10tr~~~\8\6-|
D |------------------------------------------|
A |------------------------------------------|
E |------------------------------------------|
A |------------------------------------------|

B |--|
F#|-5tr~~~~~~~~~~~~~~~~~~~~~~~~~/6/8--10\\\\-|
D |------------------------------------------|
A |------------------------------------------|
E |------------------------------------------|
A |------------------------------------------|

Outro

B |------------------------------|
F#|------------------------------|
D |------------------------------|
A |-0---000-000---000-00-00-0-00-| x2
E |-0---000-000---000-00-00-0-00-|
A |-0---000-000---000-00-00-0-00-|
PM  .   ... ...   ... .. .. . ..

B |---------------------------|
F#|---------------------------|
D |---------------------------|
A |-8---888-888---888-88-88-8-|
E |-8---888-888---888-88-88-8-|
A |-8---888-888---888-88-88-8-|
PM  .   ... ...   ... .. .. .

B |-----------------------------------------|
F#|-----------------------------------------|
D |-----------------------------------------|
A |-10---101010-101010---101010-1010--------|
E |-10---101010-101010---101010-1010-/7/8\5-|
A |-10---101010-101010---101010-1010--------|
PM  .    . . .  . . .    . . .  . .
Добавлено: 25.05.2012
Другие материалы по этой песне:
  • Аккорды и текст

Страница создана 25.05.2012
http://primanota.ru/and-hell-followed-with/the-pious-now-corrupt-chords.htm
Привет, Гость.
Предлагаем пройти революционный курс по гитаре.
Подарок от PrimaNota.Ru, забирай!