PrimaNota.ru - самый крупный в мире бесплатный архив песенных текстов, аккордов, табулатур и нот


And Hell Followed With - Serpents Beneath Their Hoods - таба, видео

Регистрация Запомнить меня
Войти через:  Facebook Google Twitter Vk Yandex Mail.ru

And Hell Followed With - Serpents Beneath Their Hoods - таба, видео

Печатать
Просмотров: 116
Band:  And Hell Followed With
Song:  Serpents Beneath Their Hoods
Album: Domain

Tuning: Drop A [A,E,A,D,F#,B]

Intro A x8

Tremello pick all these notes in duplets (2x)

B |-------------------------------------------|
F#|-------------------------------------------|
D |-------------------------------------------|
A |-------------------------------------------|
E |----------------------------------------12-|
A |-12-8-11-7-12-8-11-7-12-8-11-7-12-14-15----|

B |-----------------------------------------|
F#|-----------------------------------------|
D |-----------------------------------------|
A |-----------------------------------------|
E |-------------------------------12-10-8-7-|
A |-12-8-11-7-12-8-11-7-12-8-11-7-----------|

Intro B x8

B |------------------------------|
F#|------------------------------|
D |------------------------------|
A |------------------------------|
E |-00-----000000-00---000000-00-|
A |-00-----000000-00---000000-00-|
PM  ..     ...... ..   ...... ..

(Rhythm keeps playing Intro B)

Intro C

B |------|   |------|  |------|   |-----|   |------|  |-----|   |
F#|------|   |------|  |------|   |-----|   |------|  |-----|   |
D |------|   |------|  |------|   |-----|   |------|  |-----|   |
A |------|   |------|  |------|   |-----|   |------|  |-----|   |
E |12p8p7|x12|13p8p7|x4|10p7p5|x16|7p5p4|x12|10p5p4|x4|8p7p5|x16|
A |------|   |------|  |------|   |-----|   |------|  |-----|   |

Verse 1 x4

This is how they play it, but I can't play fast enough to hit the
open notes as well as the others, so don't worry about it.

B |---------------------------------|
F#|--------------------------15-----|
D |----------------------------14---|
A |------------------------------15-|
E |--5-7-8-7-4-5-1-4-5--------------|
A |-0-0-0-0-0-0-0-0-0--0000---------|
PM  . . . . . . . . .  ....

Pre-Chorus

Triplets?
B |-------------------|
F#|-------------------|
D |-------------------|
A |-------------------|
E |-12-10-8-7-8-7-5-4-|
A |-------------------|

Chorus x4

B |-------------------------------|
F#|-------------------------------|
D |-------------------------------|
A |-------------------------------|
E |------5/7-8-----------10/13\12-|
A |-8888-------10101010-----------|

Duplets
B |-------------------------|
F#|-------------------------|
D |-------------------------|
A |-------------------------|
E |-------------------------|
A |-12-11-15-14-11-12-15-14-|

Bridge A x2

[GUITAR ONE]

B |---------------------------------------------|
F#|---------------------------------------------|
D |---------------------------------------------|
A |-0~~~~~~~~~~~~~~~~~~~~~~~~~~~~~~~~~~~~~~~8-8-|
E |-0~~~~~~~~~~~~~~~~~~~~~~~~~~~~~~~~~~~~~~~8-8-|
A |-0~~~~~~~~~~~~~~~~~~~~~~~~~~~~~~~~~~~~~~~8-8-|
PM                                          . .

[GUITAR TWO]
(Delay, Chorus, Distortion)

B |----------------------------------------------------|
F#|--------10~~-----10~~--10~~-----10~~-----10~~--10~~-|
D |-----10~~--10~~~----10~~-----10~~--10~~~----10~~----|
A |--12~~--------------------12~~----------------------|
E |----------------------------------------------------|
A |----------------------------------------------------|

CONTINUED

[GUITAR ONE]
(Distortion)

B |---------------------------------------------|
F#|---------------------------------------------|
D |---------------------------------------------|
A |-0~~~~~~~~~~~~~~~~~~~~~~~~~~~~~~~~~~~~~~~~~~-|
E |-0~~~~~~~~~~~~~~~~~~~~~~~~~~~~~~~~~~~~~~~~~~-|
A |-0~~~~~~~~~~~~~~~~~~~~~~~~~~~~~~~~~~~~~~~~~~-|

[GUITAR TWO]
(Delay, Chorus, Distortion)

B |-------------------------------------------------|
F#|--15~~-----15~~-----15~~-----15~~-----15~~-------|
D |-----14~~-----14~~-----14~~-----14~~-----14~~----|
A |--------12~~-----12~~-----12~~-----12~~-----12~~-|
E |-------------------------------------------------|
A |-------------------------------------------------|

Bridge B

[GUITAR ONE]
(Distortion)

B |---------------------------|
F#|---------------------------|
D |---------------------------|
A |---------------------------|
E |-88888888-1010101010101010-|
A |-88888888-1010101010101010-|
PM  ........ . . . . . . . .

[GUITAR TWO]
(Delay, Chorus, Distortion)

B |-------------------------------------------------|
F#|--15~~-----15~~-----15~~-----17~~-----17~~-------|
D |-----14~~-----14~~-----14~~-----14~~-----14~~----|
A |--------12~~-----12~~-----12~~-----12~~-----12~~-|
E |-------------------------------------------------|
A |-------------------------------------------------|

Bridge C

B |----------------------|
F#|----------------------|
D |----------------------|
A |----------------------|x4
E |----------------------|
A |-0------00-0----00-00-|

Bridge D

B |----------------------|
F#|----------------------|
D |----------------------|
A |----------------------|x4
E |-0~~~~~~~-00----00-00-|
A |-0~~~~~~~-00----00-00-|
PM           ..    .. ..

Outro A x4

Duplets
B |-------------------------------------------|
F#|-------------------------------------------|
D |-------------------------------------------|
A |-------------------------------------------|
E |----------------------------------------12-|
A |-12-8-11-7-12-8-11-7-12-8-11-7-12-14-15----|

B |-----------------------------------------|
F#|-----------------------------------------|
D |-----------------------------------------|
A |-----------------------------------------|
E |-------------------------------12-10-8-7-|
A |-12-8-11-7-12-8-11-7-12-8-11-7-----------|

Outro B x8

B |------------------------------|
F#|------------------------------|
D |------------------------------|
A |------------------------------|
E |-00-----000000-00---000000-00-|
A |-00-----000000-00---000000-00-|
PM  ..     ...... ..   ...... ..

They're not actually unsigned, they're signed to Earache Records but since they 
don't have an official site, I can't give UG a link to it.
Добавлено: 06.06.2012
Другие материалы по этой песне:
  • Аккорды и текст

Страница создана 06.06.2012
http://primanota.ru/and-hell-followed-with/serpents-beneath-their-hoods-chords.htm
Привет, Гость.
Предлагаем пройти революционный курс по гитаре.
Подарок от PrimaNota.Ru, забирай!