PrimaNota.ru - самый крупный в мире бесплатный архив песенных текстов, аккордов, табулатур и нот


And Hell Followed With - Deadworld Reclamation - таба, видео

Регистрация Запомнить меня
Войти через:  Facebook Google Twitter Vk Yandex Mail.ru

And Hell Followed With - Deadworld Reclamation - таба, видео

Печатать
Просмотров: 88
Tuning: drop A


don't mind about mistakes.....i think it sounds pretty like the original.
enjoy!

Intro
|--------------------------------------|
|--------------------------------------|
|--------------------------------------|
|-----------------------------22112211-|\
|-----------------------------22112211-| \
|-0005-5-0005-5-0005-0005-5-4-22112211-|  \
                              ........     \
                                            \
|--------------------------------------|    /   2x
|--------------------------------------|   /
|--------------------------------------|  /
|-----------------------------11001100-| /
|-----------------------------11001100-|/
|-0001-1-0001-1-0001-0001-1-0-11001100-|
                              ........

|-------------------------------------|
|-------------------------------------|
|-------------------------------------| \
|-------------------------------------|  \
|-------------------------------------|   \
|-0005-5-0005-5-0005-0005-5-8-8-7-7*^-|    \
                                            \
|--------------------------------------|    /   2x
|--------------------------------------|   /
|--------------------------------------|  /
|-----------------------------11001100-| /
|-----------------------------11001100-|/
|-0001-1-0001-1-0001-0001-1-0-11001100-|
                              ........


Verse I

(GuitarI)
|----------------------------------------------|
|----------------------------------------------|
|----------------------------------------------|
|----------------------------------------------|
|----1''-----1''--2''-----1''-----5''2''1''2''-|\
|-1''-----1''----------1''-----1''-------------| \
                                                  \
|----------------------------------------------|  /  2x
|----------------------------------------------| /
|----------------------------------------------|/
|----------------------------------------------|
|----1''-----1''--2''-----1''-----5''2''1''2''-|
|-0''-----0''----------0''-----0''-------------|


GuitarII
|---------------------------------------------|
|---------------------------------------------|
|---------------------------------------------|
|-1~------------------------------------11110-|
|-1~------------------------------------11110-|
|-1~------------------------------------11110-|
                                        .....

|--------------------------------------------|
|--------------------------------------------|
|--------------------------------------------|
|---------------------------------------0000-|
|---------------------------------------0000-|
|---------------------------------------0000-|
                                        ....

|----------------------------------------------|
|----------------------------------------------|
|----------------------------------------------|
|----------------------------------------------|
|----1''-----1''--2''-----1''-----5''2''1''2''-|
|-1''-----1''----------1''-----1''-------------|
                                                
|----------------------------------------------|
|----------------------------------------------|
|----------------------------------------------|
|----------------------------------------------|
|----1''-----1''--2''-----1''-----5''2''1''2''-|
|-0''-----0''----------0''-----0''-------------|


Both
|-----------------------------------------------------------|
|-----------------------------------------------------------|
|-----------------------------------------------------------|
|-111-111-----111-111---------111-111-----111-111---111-111-|
|-111-111-----111-111---------111-111-----111-111---111-111-|
|-111-111-----111-111---------111-111-----111-111---111-111-|
  ... ...     ... ...         ... ...     ... ...   ... ...

|-----------------------------------------------------------|
|-----------------------------------------------------------|
|-----------------------------------------------------------|
|-000-000-----000-000---------000-000-----000---------------|
|-000-000-----000-000---------000-000-----000-5''2''1''2''--|
|-000-000-----000-000---------000-000-----000---------------|
  ... ...     ... ...         ... ...     ...

Bridge
|--------------------------------------------------|
|--------------------------------------------------|
|------7~----------6~----------3~----------6~------|
|-5~---5~-----4~---4~-----1~---1~-----4~---4~------|
|-5~----------4~----------1~----------4~-----------|
|-5~----------4~----------1~----------4~-----------|

I. Melody
GuitarI+II
|--------------------------------------------------------------|
|--------------------------------------------------------------|
|--------------------------------------------------------------|
|-5-5-5---5-5--5----5-5-55555~----4-4-4---4-4--4----4-4-44444~-|
|-5-5-5---5-5--5----5-5-55555~----4-4-4---4-4--4----4-4-44444~-|
|-5-5-5---5-5--5----5-5-55555~----4-4-4---4-4--4----4-4-44444~-|
  . . .   . .  .    . . .....     . . .   . .  .    . . .....

|--------------------------------------------------------------|
|--------------------------------------------------------------|
|--------------------------------------------------------------|
|-1-1-1---1-1--1----1-1-11111~----4-4-4---4-4--4----4-4-44444~-|
|-1-1-1---1-1--1----1-1-11111~----4-4-4---4-4--4----4-4-44444~-|
|-1-1-1---1-1--1----1-1-11111~----4-4-4---4-4--4----4-4-44444~-|
  . . .   . .  .    . . .....     . . .   . .  .    . . .....

GuitarIII with Delay
|--------------------------------------------------------|
|--------------------------------------------------------|
|-12-12-12----14h15-14~----12-11^----15141211------------|
|----------12--------------------------------13~-12~-10~-|
|--------------------------------------------------------|
|--------------------------------------------------------|

|-----------------------------|
|-----------------------------|
|----------11~--12~--14~--15~-|
|-10-12-13--------------------|
|-----------------------------|
|-----------------------------|


Verse II
|------------------------------------------------------------------|
|------------------------------------------------------------------|
|------------------------------------------------------------------|
|-------5-----------5---------5---------4-----------4---------4----|
|-5-----------5-----------5-------4-----------4-----------4--------|
|--85858-85858-85858-85858-858-858-74747-74747-74747-74747-747-747-|  2x


then same Riff as Intro
|--------------------------------------|
|--------------------------------------|
|--------------------------------------|
|-----------------------------22112211-|\
|-----------------------------22112211-| \
|-0005-5-0005-5-0005-0005-5-4-22112211-|  \
                              ........     \
                                            \
|--------------------------------------|    /   2x
|--------------------------------------|   /
|--------------------------------------|  /
|-----------------------------11001100-| /
|-----------------------------11001100-|/
|-0001-1-0001-1-0001-0001-1-0-11001100-|
                              ........


|-------------------------------------|
|-------------------------------------|
|-------------------------------------| \
|-------------------------------------|  \
|-------------------------------------|   \
|-0005-5-0005-5-0005-0005-5-8-8-7-7*^-|    \
                                            \
|--------------------------------------|    /   2x
|--------------------------------------|   /
|--------------------------------------|  /
|-----------------------------11001100-| /
|-----------------------------11001100-|/
|-0001-1-0001-1-0001-0001-1-0-11001100-|
                              ........

Breakdown
|------------------------------|
|------------------------------|
|------------------------------|
|-1111----1111-1-1111-1111-1-1-|
|-1111----1111-1-1111-1111-1-1-|\
|-1111----1111-1-1111-1111-1-1-| \
  ....    .... . .... .... . .    \
                                   \
|------------------------------|   /  2x
|------------------------------|  /
|------------------------------| /
|-0000----0000-0-0000-0000-0-0-|/
|-0000----0000-0-0000-0000-0-0-|
|-0000----0000-0-0000-0000-0-0-|
  ....    .... . .... .... . .


when the maledy comes in the breakdown changes a bit
|---------------------------------------|
|---------------------------------------|
|---------------------------------------|
|-1111----1111-1-1111-1111-1-1------5---|
|-1111----1111-1-1111-1111-1-1-5--------|\
|-1111----1111-1-1111-1111-1-1--858--858| \
  ....    .... . .... .... . .             \
                                            \
|---------------------------------------|   /  2x
|---------------------------------------|  /
|---------------------------------------| /
|-0000----0000-0-0000-0000-0-0-----4----|/
|-0000----0000-0-0000-0000-0-0-4--------|
|-0000----0000-0-0000-0000-0-0--747-747-|
  ....    .... . .... .... . .

Melody (GuitarIII with Delay again)
|---------------11~-------------------------|
|-/11--------------------/11---------13-----|
|-------12-14------------------12-14----11~-|
|-------------------------------------------|
|-------------------------------------------|
|-------------------------------------------|  2x

Bridge
|---------------------------------------------|
|---------------------------------------------|
|---------------------------------------------|
|-5--8----5--8----5--8------------------------|
|-5--8----5--8----5--8----8''7''---7''---7''8-|
|-5--8----5--8----5--8----------8''---8''-----|
  .  .    .  .    .  .

'fast' riff
|-----------------------------------------------|
|-----------------------------------------------|
|-----------------------------------------------|
|-----------------------------------------------|
|-4''-----4''-----4''-----7''5''---5''---5''7''-|
|----7''-----7''-----7''--------7''---7''-------|

|-----------------------------------------------|
|-----------------------------------------------|
|-----------------------------------------------|
|-----------------------------------------------|
|-5''-----5''-----5''-----8''7''---7''---7''8''-|
|----8''-----8''-----8''--------8''---8''-------|

|-----------------------------------------------|
|-----------------------------------------------|
|-----------------------------------------------|
|-----------------------------------------------|
|-4''-----4''-----4''-----7''5''---5''---5''7''-|
|----7''-----7''-----7''--------7''---7''-------|

|---------------------------------------|
|---------------------------------------|
|---------------------------------------|
|---------------------------------------|
|-5------5------5------8-7----7----7-8--|
|----8------8------8--------8----8------|
                            .    .

|---------------------------------------|
|---------------------------------------|
|---------------------------------------|
|---------------------------------------|
|-4------4------4------7-5----5----5-7--|
|----7------7------7--------7----7------|
                            .    .

|---------------------------------------|
|---------------------------------------|
|---------------------------------------|
|---------------------------------------|
|-5------5------5------8-7----7----7-8--|
|----8------8------8--------8----8------|
                            .    .

|---------------------------------------------------|
|---------------------------------------------------|
|---------------------------------------------------|
|---------------------------------------------------|
|-444------444------444------7''5''---5''---5''7''--|
|----777------777------777---------7''---7''--------|
  ......   ......   ......   .  .  .  .  .  .  .

|---------------------------------------------------|
|---------------------------------------------------|
|---------------------------------------------------|
|---------------------------------------------------|
|-555------555------555------8''7''---7''---7''8''--|
|----888------888------888---------8''---8''--------|
  ......   ......   ......   .  .  .  .  .  .  .

|---------------------------------------------------|
|---------------------------------------------------|
|---------------------------------------------------|
|---------------------------------------------------|
|-444------444------444------7''5''---5''---5''7''--|
|----777------777------777---------7''---7''--------|
  ......   ......   ......   .  .  .  .  .  .  .

only this one short chord
|---|
|---|
|---|
|-0-|
|-0-|
|-0-|
  .

last EEEEEEEPIC
Breakdown
|----------------------------------------------------------------|
|----------------------------------------------------------------|
|----------------------------------------------------------------|
|-----000-----000--0--0--0------000------000--0--0--0-0-0--0--0--|
|-----000-----000--0--0--0------000------000--0--0--0-0-0--0--0--|
|-0~--000--1--000--1~-1~-1~-0~--000---1--000--1~-1~-1~1~1~-1~-1~-|  4x



subscribe! thx <3


Phil WEE [Facebook]
Добавлено: 27.02.2012
Другие материалы по этой песне:

Страница создана 27.02.2012
http://primanota.ru/and-hell-followed-with/deadworld-reclamation-chords.htm
Привет, Гость.
Предлагаем пройти революционный курс по гитаре.
Подарок от PrimaNota.Ru, забирай!