PrimaNota.ru - самый крупный в мире бесплатный архив песенных текстов, аккордов, табулатур и нот


And Hell Followed With - Ancestral Deceit - таба, видео

Регистрация Запомнить меня
Войти через:  Facebook Google Twitter Vk Yandex Mail.ru

And Hell Followed With - Ancestral Deceit - таба, видео

Печатать
Просмотров: 144
Band:  And Hell Followed With
Song:  Ancestral Deceit
Album: Domain

Tuning: Drop A [A,E,A,D,F#,B]


Part A 0:00 - 0:34

BOTH GUITARS x3

B |---|   |---|   |---|   |---|   |---|
F#|---|   |---|   |---|   |---|   |---|
D |---|   |---|   |---|   |---|   |---|
A |-1-|x32|-0-|x32|-6-|x32|-3-|x16|-5-|x16
E |-3-|   |-2-|   |-8-|   |-5-|   |-6-|
A |---|   |---|   |---|   |---|   |---|


Part B 0:34 - 0:52

GUITAR ONE

B |---|   |---|   |---|   |---|   |---|
F#|---|   |---|   |---|   |---|   |---|
D |---|   |---|   |---|   |---|   |---|
A |-1-|x32|-0-|x32|-6-|x32|-3-|x16|-5-|x16
E |-3-|   |-2-|   |-8-|   |-5-|   |-6-|
A |---|   |---|   |---|   |---|   |---|

GUITAR TWO

B |-------------------------------------------|
F#|-------------------------------------------|
D |-------------------------------------------|
A |-17~~~---------18-17--15-17-15-17----------|
E |------18~~~~~~--------------------18~~~~~~-|
A |-------------------------------------------|

continued...

B |------------------------------------------------------|
F#|------------------------------------------------------|
D |------------------------------------------------------|
A |-12-13-15-17-18~~~~~~-17-18-17~-15-13-15-17~~-18~~~~~-|
E |------------------------------------------------------|
A |------------------------------------------------------|


Part C 0:52 - 1:17

GUITAR ONE x3

B |----------------------------------------------------------------------|
F#|----------------------------------------------------------------------|
D |----------------------------------------------------------------------|
A |-5~~~~~~~~~~~~~~~~~~~~~~~~~~~~~~~-1~~~~~~~~~~~~~~~~-0~~~~~~~~~~~~~~~~-|
E |-5~~~~~~~~~~~~~~~~~~~~~~~~~~~~~~~-1~~~~~~~~~~~~~~~~-0~~~~~~~~~~~~~~~~-|
A |-5~~~~~~~~~~~~~~~~~~~~~~~~~~~~~~~-1~~~~~~~~~~~~~~~~-0~~~~~~~~~~~~~~~~-|

GUITAR TWO

B |----------------------------------------------------------------------|
F#|----------------------------------------------------------------------|
D |----------------------------------------------------------------------|
A |-55555555555555555555555555555555-11111111111111111-000000000000000-8-|
E |----------------------------------------------------------------------|
A |----------------------------------------------------------------------|

B |----------------------------------------------------------------------|
F#|----------------------------------------------------------------------|
D |-------------------------------55-777777777777777-8-55555555555555555-|
A |-555555555555-77-8888888888888----------------------------------------|
E |----------------------------------------------------------------------|
A |----------------------------------------------------------------------|

B |----------------------------------------------------------------------|
F#|----------------------------------------------------------------------|
D |----------------------------------------------------------------------|
A |-88888888888888888888888888888-55-11111111111111111-00000000000000000-|
E |----------------------------------------------------------------------|
A |----------------------------------------------------------------------|


Part D 1:17 - 2:29

This just repeats until fade out.

GUITAR ONE

B |----------------------------------------------------------------------|
F#|----------------------------------------------------------------------|
D |----------------------------------------------------------------------|
A |-5~~~~~~~~~~~~~~~~~~~~~~~~~~~~~~~-1~~~~~~~~~~~~~~~~-3~~~~~~~~~~~~~~~~-|
E |-5~~~~~~~~~~~~~~~~~~~~~~~~~~~~~~~-1~~~~~~~~~~~~~~~~-3~~~~~~~~~~~~~~~~-|
A |-5~~~~~~~~~~~~~~~~~~~~~~~~~~~~~~~-1~~~~~~~~~~~~~~~~-3~~~~~~~~~~~~~~~~-|

GUITAR TWO

B |----------6-10p6--10p6--10p6--|
F#|--------8-------8-----8-----8-|
D |------7-----------------------|
A |----8-------------------------|x3
E |-10---------------------------|
A |------------------------------|

B |------------8-12p8---12p8---12p8---|
F#|---------10-------10-----10-----10-|
D |-------9---------------------------|
A |----10-----------------------------|
E |-12--------------------------------|
A |-----------------------------------|
Добавлено: 17.07.2012
Другие материалы по этой песне:
  • Аккорды и текст

Страница создана 17.07.2012
http://primanota.ru/and-hell-followed-with/ancestral-deceit-chords.htm
Привет, Гость.
Предлагаем пройти революционный курс по гитаре.
Подарок от PrimaNota.Ru, забирай!