PrimaNota.ru - самый крупный в мире бесплатный архив песенных текстов, аккордов, табулатур и нот


And Hell Followed With - An Infestation - таба, видео

Регистрация Запомнить меня
Войти через:  Facebook Google Twitter Vk Yandex Mail.ru

And Hell Followed With - An Infestation - таба, видео

Печатать
Просмотров: 138
Band:  And Hell Followed With
Song:  An Infestation
Album: Domain

Tuning: Drop A [A,E,A,D,F#,B]


Intro A x2

GUITAR ONE

B |---------------------------------|
F#|---------------------------------|
D |---------------------------------|
A |---------------------------------|
E |---------------------------------|
A |-000-000-000-------000-000-000---|

GUITAR TWO

B |---------------------------------|
F#|---------------------------------|
D |---------------------------------|
A |---------------------------------|
E |-5~~~~~~-7h8p7-5/8-1~~~~~~-5-1/4-|
A |---------------------------------|


Intro B x2

GUITAR ONE

B |---------------------------------|
F#|---------------------------------|
D |---------------------------------|
A |---------------------------------|
E |-5~~~~~~-7h8p7-5/8-1~~~~~~-5-1/4-|
A |---------------------------------|

GUITAR TWO

B |-------------------------------------|
F#|-------------------------------------|
D |-------------------------------------|
A |-------------------------------------|
E |-8~~~~~~-10h12p10-8/12-4~~~~~~-8-4/7-|
A |-------------------------------------|


VERSE 1 x2
Part One x2

GUITAR ONE - I don't know GUITAR TWO

B |----------------------------|
F#|-----------------Tremello---|
D |------------------Picking---|
A |--------------{------------}|
E |-----5---4-----8-7-10-8-7-5-|
A |-000---0---000--------------|
PM  ...   .   ...

Part Two x1

B |----------------------------|
F#|-----------------Tremello---|
D |------------------Picking---|
A |--------------{------------}|
E |-----8---7-----10-8-7-8-7-5-|
A |-888---8---888--------------|
PM  ...   .   ...

Part Three

B |--------------------------------------|
F#|--------------------------Tremello----|
D |---------------------------Picking----|
A |----------------------{--------------}|
E |--------10----8--------12-10-8-10-8-7-|
A |-101010----10---101010----------------|
PM  ...   .   ...


BREAKDOWN x4

BOTH GUITARS

B |---------------------------------------|
F#|---------------------------------------|
D |---------------------------------------|
A |-0---00-0000---000-1~~~-0---00-0000----|
E |-0---00-0000---000-1~~~-0---00-0000----|
A |-0---00-0000---000-1~~~-0---00-0000----|
PM  .   .. ....   ...      .   .. ....


PREVERSE 2 x1

B |---------------------|
F#|---------------------|
D |---------------------|
A |---------5-7-8-7-5---|
E |-4-5-7-8-----------8-|
A |---------------------|
PM  . . . . . . . . . .

VERSE 2 x4

GUITAR ONE - Again, don't know GUITAR TWO

B |--------------------------------------------------|
F#|--------------------------------------------------|
D |--------------------------------------------------|
A |--------------------------------------------------|
E |-5---------4---------1-1-1-1--0-0-----------------|
A |---000-000---000-000--0-0-0--0-0-0-7h8h11-8h11h12-|
PM    ... ...   ... ...  . . .  . . .


SOLO

GUITAR ONE x4

B |-----------------------------------------|
F#|-----------------------------------------|
D |-----------------------------------------|
A |-1~~~~~~~~-3~~~~~~~~-5~~~~~~~~-8~~~~~~~~-|
E |-1~~~~~~~~-3~~~~~~~~-5~~~~~~~~-8~~~~~~~~-|
A |-1~~~~~~~~-3~~~~~~~~-5~~~~~~~~-8~~~~~~~~-|

GUITAR TWO

B |-----------------------------------------------------------|
F#|-----------------------------------------------------------|
D |-/12~~~~-14h15p14~~~-15~~14~~~~----------12-14-15-14-12-10-|
A |--------------------------------12-14-15-------------------|
E |-----------------------------------------------------------|
A |-----------------------------------------------------------|
PM                                 .  .  .  .  .  .  .  .  .

B |----------------------------17-------------------------|
F#|-------------------------------18----------------------|
D |-8~~~~/15~\7~~~~/17~-19~~~~-------19-------------15h17-|
A |-------------------------------------19--17-15h17------|
E |-------------------------------------------------------|
A |-------------------------------------------------------|

B |-----------------------------------------13----------------------|
F#|--------15---------13-15-13*\\--------------13-15~~~~------------|
D |-12~~~~----12------------------14~~15-14--------------14-15-14\\-|
A |--------------15~~-----------------------------------------------|
E |-----------------------------------------------------------------|
A |-----------------------------------------------------------------|

B |----------------------------13h15----------------------------|
F#|--------15------------13-15-------15~~~~-15-13-15~~----------|
D |-12~~~~----12------15-------------------------------14/15\14-|
A |--------------15~~-------------------------------------------|
E |-------------------------------------------------------------|
A |-------------------------------------------------------------|


VERSE 1 x2
Part One x2

GUITAR ONE - I don't know GUITAR TWO

B |----------------------------|
F#|-----------------Tremello---|
D |------------------Picking---|
A |--------------{------------}|
E |-----5---4-----8-7-10-8-7-5-|
A |-000---0---000--------------|
PM  ...   .   ...

Part Two x1

B |----------------------------|
F#|-----------------Tremello---|
D |------------------Picking---|
A |--------------{------------}|
E |-----8---7-----10-8-7-8-7-5-|
A |-888---8---888--------------|
PM  ...   .   ...

Part Three

B |--------------------------------------|
F#|--------------------------Tremello----|
D |---------------------------Picking----|
A |----------------------{--------------}|
E |--------10----8--------12-10-8-10-8-7-|
A |-101010----10---101010----------------|
PM  ...   .   ...


BREAKDOWN 2
Part One x1

GUITAR ONE x2

B |-------------------------------|
F#|-------------------------------|
D |-------------------------------|
A |-0~~~~~~~~~~~~~~~~~~~~~~~~~~~~-|
E |-0~~~~~~~~~~~~~~~~~~~~~~~~~~~~-|
A |-0~~~~~~~~~~~~~~~~~~~~~~~~~~~~-|

GUITAR TWO x4
Turn the bass on your EQ right down for this.

B |-------------------------------|
F#|-------------------------------|
D |-------------------------------|
A |-------------------------------|
E |-------------------------------|
A |-000-000-000-000-000-----0-----|

Part Two x4

BOTH GUITARS

B |-------------------------------|
F#|-------------------------------|
D |-------------------------------|
A |-000-000-000-000-000-----0-----|
E |-000-000-000-000-000-----0-----|
A |-000-000-000-000-000-----0-----|
PM  ... ... ... ... ...     .


PRE-OUTRO x2

GUITAR ONE

B |---------------------------------|
F#|---------------------------------|
D |---------------------------------|
A |---------------------------------|
E |-5~~~~~~-7h8p7-5/8-1~~~~~~-5-1/4-|
A |---------------------------------|

GUITAR TWO

B |-------------------------------------|
F#|-------------------------------------|
D |-------------------------------------|
A |-------------------------------------|
E |-8~~~~~~-10h12p10-8/12-4~~~~~~-8-4/7-|
A |-------------------------------------|


OUTRO - Repeat until fade out

GUITAR ONE

B |------------------------------|----------------------------------|
F#|------------------------------|----------------------------------|
D |------------------------------|----------------------------------|
A |------------------------------|----------------------------------|
E |------------------------------|----------------------------------|
A |-0000000000000000000000000000-|-8888888888888888-10101010101010--|

GUITAR TWO

B |------------------------------|----------------------------------|
F#|------------------------------|----------------------------------|
D |------------------------------|----------------------------------|
A |------------------------------|----------------------------------|
E |-12121212121212-12h13-15-13-12|-1212121312121213-10~~~~-10-8-7h8-|
A |------------------------------|----------------------------------|
Добавлено: 01.05.2012
Другие материалы по этой песне:
  • Аккорды и текст

Страница создана 01.05.2012
http://primanota.ru/and-hell-followed-with/an-infestation-chords.htm
Привет, Гость.
Предлагаем пройти революционный курс по гитаре.
Подарок от PrimaNota.Ru, забирай!