PrimaNota.ru - самый крупный в мире бесплатный архив песенных текстов, аккордов, табулатур и нот


And Hell Followed With - A Welcome Displeasure - таба, видео

Регистрация Запомнить меня
Войти через:  Facebook Google Twitter Vk Yandex Mail.ru

And Hell Followed With - A Welcome Displeasure - таба, видео

Печатать
Просмотров: 93
This is my first tab, hope it helps.

Intro
e|----------------------------------|
B|----------------------------------|
G|----------------------------------|
D|----7-----10----------------------|
A|----------------------------------|
E|----5-----8-----------------------|
A|0-0---0-0-------------------------|
  x x   x x
First Riff
e|----------------------------------| x2
B|----------------------------------|
G|----------------------------------|
D|----4/3---7---3/4-----------------|
A|----------------------------------|
E|----2/1---5---1/2-----------------|
A|0-0-----0---0---------------------|
  x x     x   x

e|----------------------------------| x2
B|----------------------------------|
G|----------------------------------|
D|----4/3--8---3/5------------------|
A|----------------------------------|
E|----2/1--6---1/2------------------|
A|0-0-----0---0---------------------|
  x x     x   x
Repeat entire first riff twice

Second Riff
e|----------------------------------| x2
B|----------------------------------|
G|----------------------------------|
D|----------------------------------|
A|----------------------------------|
E|----22221111----5555----11112222--|
A|4444--------4444----4444----------|

e|----------------------------------| x2
B|----------------------------------|
G|----------------------------------|
D|----------------------------------|
A|----------------1111--------------|
E|----22221111------------11112222--|
A|1111--------1111----1111----------|

Repeat Second Riff Twice

Intro Again
e|----------------------------------|
B|----------------------------------|
G|----------------------------------|
D|----7-----10----------------------|
A|----------------------------------|
E|----5-----8-----------------------|
A|0-0---0-0-------------------------|
  x x   x x

e|--------------------------------------------------------------------------|
B|--------------------------------------------------------------------------|
G|--------------------------------------------------------------------------|
D|777777777777777766666666999999992222222277777777--------------------------|
A|--------------------------------------------------------------------------|
E|555555555555555544444444777777774444444455555555---0-0--0-0-0-4-4--4-4-4--|
A|---------------------------------------------------0-0--0-0-0-4-4--4-4-4--|
x2
e|--------------------------------------------------------------------------|
B|--------------------------------------------------------------------------|
G|--------------------------------------------------------------------------|
D|--------77777777------------------------44444444--------------------------|
A|--------------------------------------------------------------------------|
E|55555555--------444444447777777722222222----------------------------------|
A|------------------------------------------------0000000044444444----------|
x2
Rhythm Guitar 
e|--------------------------------------------------------------------------|
B|--------------------------------------------------------------------------|
G|--------------------------------------------------------------------------|
D|--------------------------------------------------------------------------|
A|--------------------------------------------------------------------------|
E|000---------------000---------------111---------------111-----------------|
A|000---------------000---------------111---------------111-----------------|
  xxx               xxx               xxx               xxx
Lead Guitar
e|--------------------------------------------------------------------------|
B|--------------------------------------------------------------------------|
G|--------------------------------------------------------------------------|
D|--------------------------------------------------------------------------|
A|--------------------------------------------------------------------------|
E|----2-1---5---1-2-----2-1---5---1-2-----2-1---6---1-2-----2-1---6---1-2---|
A|000-----0---0-----000-----0---0-----111-----0---0-----111-----0---0-------|
  xxx     x   x     xxx     x   x     xxx     x   x     xxx     x   x
Both
e|----------------------------------------------------------------------|
B|----------------------------------------------------------------------|
G|----------------------------------------------------------------------|
D|----------------------------------------------------------------------|
A|---------------------------------------------------------0~-----------|
E|5-5-5-5-55-5--5-5-5-55-0-0-000-0-0---4-4-4-4-44-4--4--4--0~-----------|
A|5-5-5-5-55-5--5-5-5-55-0-0-000-0-0---4-4-4-4-44-4--4--4--0~-----------|
  x x x x xx x  x x x xx x x xxx x x   x x x x xx x  x  x  

Rhythm Guitar 
e|--------------------------------------------------------------------------|
B|--------------------------------------------------------------------------|
G|--------------------------------------------------------------------------|
D|--------------------------------------------------------------------------|
A|--------------------------------------------------------------------------|
E|000---------------000---------------111---------------111-----------------|
A|000---------------000---------------111---------------111-----------------|
  xxx               xxx               xxx               xxx
Lead Guitar
e|--------------------------------------------------------------------------|
B|--------------------------------------------------------------------------|
G|--------------------------------------------------------------------------|
D|--------------------------------------------------------------------------|
A|--------------------------------------------------------------------------|
E|----2-1---5---1-2-----2-1---5---1-2-----2-1---6---1-2-----2-1---6---1-2---|
A|000-----0---0-----000-----0---0-----111-----0---0-----111-----0---0-------|
  xxx     x   x     xxx     x   x     xxx     x   x     xxx     x   x
Repeat This Riff Twice

Breakdown
e|----------------------------------------------------------------------|
B|----------------------------------------------------------------------|
G|----------------------------------------------------------------------|
D|----------------------------------------------------------------------|
A|---------------------------------------------------------0~-----------|
E|5-5-5-5-55-5--5-5-5-55-0-0-000-0-0---4-4-4-4-44-4--4--4--0~-----------|
A|5-5-5-5-55-5--5-5-5-55-0-0-000-0-0---4-4-4-4-44-4--4--4--0~-----------|
  x x x x xx x  x x x xx x x xxx x x   x x x x xx x  x  x  

Bridge
e|-------|-------|
B|-------|-------|
G|----6--|----3--|
D|7-4---7|4-1---4|
A|-------|-------|
E|-------|-------|
A|-------|-------|
  Right   Left
Solo, Breakdown plays behind solo
e|----5"---4"------4h5p4------------------------------------------|
B|-----------------------5----------------------------------------|
G|--6----------------------6/---2/4-2-4^-2---/5-4--/8-7/--/8-7----|
D|7---------------------------------------------------------------|
A|----------------------------------------------------------------|
E|----------------------------------------------------------------|
A|----------------------------------------------------------------|

e|-------------|
B|10/12-10-8-10|
G|-------------|
D|-------------|
A|-------------|
E|-------------|
A|-------------|

e|9-7----7----------------------------------------------------------------|
B|----10---10-9-10-9-7-9-7---7--------------------------------------------|
G|-------------------------9---9-7-9-7-6-7-6---6--------------------------|
D|-------------------------------------------9---9-7-9-7-6-7-6---6--------|
A|-------------------------------------------------------------9---9-7~---|
E|------------------------------------------------------------------------|
A|------------------------------------------------------------------------|

e|--------------------------------------------------------------------------|
B|--------------------------------------------------------------------------|
G|--------------------------------------------------------------------------|
D|--------77777777------------------------44444444--------------------------|
A|--------------------------------------------------------------------------|
E|55555555--------444444447777777722222222----------0-0--0-0-0--4-4--4-4-4--|
A|--------------------------------------------------0-0--0-0-0--4-4--4-4-4--|
                                                    x x  x x x  x x  x x x
x2

e|--------------------------------------------------------------------------|
B|--------------------------------------------------------------------------|
G|--------------------------------------------------------------------------|
D|--------------------------------------------------------------------------|
A|--------------------------------------------------------------------------|
E|9999-9999-9-9-9-9-9-9-9-8888-8888-------------9999-9999-9-9-9-9-9-9-9-----|
A|9999-9999-9-9-9-9-9-9-9-8888-8888-9"-8"-5"-3"-9999-9999-9-9-9-9-9-9-9-0"-4"
  xxxx xxxx x x x x x x x xxxx xxxx             xxxx xxxx x x x x x x x
x2

e|----------------------------------------------------------------|
B|----------------------------------------------------------------|
G|----------------------------------------------------------------|
D|4---4---4---4---3---3---3---3---7---7---7---7---11--11--9---9---|
A|----------------------------------------------------------------|
E|--2---2---2---2---1---1---1---1---5---5---5---5---9---9---7---7-|
A|----------------------------------------------------------------|

e|----------------------------|
B|----------------------------|
G|----------------------------|
D|7~-----5~-------------------|
A|--------------0~-----3~-----|
E|5~-----3~-----0~-----3~-----|
A|--------------0~-----3~-----|

Last Breakdown is easy to figure out, all open and palm muted.

Palm Mute x
Let Ring ~
Half Bend ^
Slide /
Tremolo "
Добавлено: 20.09.2013
Другие материалы по этой песне:
  • Аккорды и текст

Страница создана 20.09.2013
http://primanota.ru/and-hell-followed-with/a-welcome-displeasure-chords.htm
Привет, Гость.
Предлагаем пройти революционный курс по гитаре.
Подарок от PrimaNota.Ru, забирай!