PrimaNota.ru - самый крупный в мире бесплатный архив песенных текстов, аккордов, табулатур и нот


And Hell Followed With - A Throne Enshrouded - таба, видео

Регистрация Запомнить меня
Войти через:  Facebook Google Twitter Vk Yandex Mail.ru

And Hell Followed With - A Throne Enshrouded - таба, видео

Печатать
Просмотров: 119
Band:  And Hell Followed With
Song:  A Throne Enshrouded
Album: Domain

Tuning: Drop A [A,E,A,D,F#,B]

Intro A x3

(Continued on from "The End of Prosperity")

[GUITAR ONE]

B |-------------------------------------------|
F#|-------------------------------------------|
D |-------------------------------------------|
A |-0~~~~~~~~~~~~~~~~~~~~~~~~~~~~~~~~~~~~~~~~-|
E |-0~~~~~~~~~~~~~~~~~~~~~~~~~~~~~~~~~~~~~~~~-|
A |-0~~~~~~~~~~~~~~~~~~~~~~~~~~~~~~~~~~~~~~~~-|

[GUITAR TWO]

B |--------------------------------------------|
F#|--------------------------------------------|
D |--------------------------------------------|
A |-7--------7-------------7-------------------|
E |---7-8-5----7-8-11-8-7----7-8-5--8--4-5-0-1-|
A |--------------------------------------------|



Intro B x4

[GUITAR ONE]

B |---------------------------------------|
F#|---------------------------------------|
D |---------------------------------------|
A |-0~~~~~~~~~~--------0~~~~~~~~~~--------|
E |-0~~~~~~~~~~-00-0-0-0~~~~~~~~~~-00-0-0-|
A |-0~~~~~~~~~~-00-0-0-0~~~~~~~~~~-00-0-0-|
PM              .. . .             .. . .

[GUITAR TWO]

B |---------------------------------------|
F#|---------------------------------------|
D |---------------------------------------|
A |---------------------------------------|
E |-5~~~~~~~~~~--------5~~~~~~~~~~-/8~~~~-|
A |---------------------------------------|

continued...

[GUITAR ONE]

B |---------------------------------------|
F#|---------------------------------------|
D |---------------------------------------|
A |-5~~~~~~~~~~--------7~~~~~~~~~~----3-2-|
E |-5~~~~~~~~~~-00-0-0-7~~~~~~~~~~-00-3-2-|
A |-5~~~~~~~~~~-00-0-0-7~~~~~~~~~~-00-3-2-|
PM              .. . .             .. . .

[GUITAR TWO]

B |---------------------------------------|
F#|---------------------------------------|
D |---------------------------------------|
A |---------------------------------------|
E |-7~~~~~~~~~~--------4~~~~~~~~~~-55-8-7-|
A |---------------------------------------|
PM                                 ..

continued...

[GUITAR ONE]

B |---------------------------------------|
F#|---------------------------------------|
D |---------------------------------------|
A |-0~~~~~~~~~~--------0~~~~~~~~~~--------|
E |-0~~~~~~~~~~-00-0-0-0~~~~~~~~~~-00-0-0-|
A |-0~~~~~~~~~~-00-0-0-0~~~~~~~~~~-00-0-0-|
PM              .. . .             .. . .

[GUITAR TWO]

B |---------------------------------------|
F#|---------------------------------------|
D |---------------------------------------|This is a really slow
A |---------------------------------------|bend and release.
E |-5~~~~~~~~~~--------8^^^^^^^^^^rrrrrrr-|
A |---------------------------------------|

continued...

[GUITAR ONE]

B |---------------------------------------|
F#|---------------------------------------|
D |---------------------------------------|
A |-5~~~~~~~~~~--------7~~~~~~~~~~----3-2-|
E |-5~~~~~~~~~~-00-0-0-7~~~~~~~~~~-00-3-2-|
A |-5~~~~~~~~~~-00-0-0-7~~~~~~~~~~-00-3-2-|
PM              .. . .             .. . .

[GUITAR TWO]

B |---------------------------------------|
F#|---------------------------------------|
D |---------------------------------------|
A |---------------------------------------|
E |-7~~~~~~~~~~--------4~~~~~~~~~~-55-8-7-|
A |---------------------------------------|
PM                                 ..



Verse A x2

B |-----------------------------------------------------------------|
F#|-----------------------------------------------------------------|
D |-----------------------------------------------------------------|
A |-----------------------------------------------------------------|
E |-5h8-5h8-4h7-4h7-5h8-5h8-4h7-4h7-1h5-1h5-0h4-0h4-1h5-1h5-4h7-4h7-|
A |-----------------------------------------------------------------|
PM  . . . . . . . . . . . . . . . . . . . .

Verse B x2

B |-----------------------------------------------------------------------|
F#|-----------------------------------------------------------------------|
D |-----------------------------------------------------------------------|
A |-----------------------------------------------------------------------|
E |-5h8-5h8-5h8-7h10-8h12-8h12-8h12-10h13-5h8-5h8-4h7-4h7-5h8-5h8-4h7-4h7-|
A |-----------------------------------------------------------------------|
PM  . . . . . . . .  . .  . .  . .  .  .  . . . . . . . . . . . . . . . .



Chorus A x2

Listen for the tremello pattern.

B |------------------------------------------------------|
F#|------------------------------------------------------|
D |------------------------------------------------------|
A |------------------------------------------------------|
E |-------------13-12--13-16----------------13-12--10----|
A |-12---15-12------------------11---14-11---------------|



Chorus B x2

B |---------------------------------------|
F#|---------------------------------------|
D |---------------------------------------|
A |-0~~~~~~~~~~--------0~~~~~~~~~~--------|
E |-0~~~~~~~~~~-00-0-0-0~~~~~~~~~~-00-0-0-|
A |-0~~~~~~~~~~-00-0-0-0~~~~~~~~~~-00-0-0-|
PM              .. . .             .. . .

[GUITAR TWO]

B |---------------------------------------|
F#|---------------------------------------|
D |---------------------------------------|
A |---------------------------------------|
E |-5~~~~~~~~~~--------5~~~~~~~~~~--------|
A |---------------------------------------|

continued...

[GUITAR ONE]

B |---------------------------------------|
F#|---------------------------------------|
D |---------------------------------------|
A |-5~~~~~~~~~~--------7~~~~~~~~~~--------|
E |-5~~~~~~~~~~-00-0-0-7~~~~~~~~~~-00-0-0-|
A |-5~~~~~~~~~~-00-0-0-7~~~~~~~~~~-00-0-0-|
PM              .. . .             .. . .

[GUITAR TWO]

B |---------------------------------------|
F#|---------------------------------------|
D |---------------------------------------|
A |---------------------------------------|
E |-4~~~~~~~~~~--------7~~~~~~~~~~--------|
A |---------------------------------------|



Breakdown A x8

[GUITAR ONE]

B |---------------------------|
F#|---------------------------|
D |---------------------------|
A |---------------------------|
E |-00000000---00-0-0--00-0-0-|
A |-00000000---00-0-0--00-0-0-|
PM  ........   .. . .  .. . .

There's a [GUITAR TWO] part for this, but I don't know it.



Verse A x2

B |-----------------------------------------------------------------|
F#|-----------------------------------------------------------------|
D |-----------------------------------------------------------------|
A |-----------------------------------------------------------------|
E |-5h8-5h8-4h7-4h7-5h8-5h8-4h7-4h7-1h5-1h5-0h4-0h4-1h5-1h5-4h7-4h7-|
A |-----------------------------------------------------------------|
PM  . . . . . . . . . . . . . . . . . . . .

Verse B x2

B |-----------------------------------------------------------------------|
F#|-----------------------------------------------------------------------|
D |-----------------------------------------------------------------------|
A |-----------------------------------------------------------------------|
E |-5h8-5h8-5h8-7h10-8h12-8h12-8h12-10h13-5h8-5h8-4h7-4h7-5h8-5h8-4h7-4h7-|
A |-----------------------------------------------------------------------|
PM  . . . . . . . .  . .  . .  . .  .  .  . . . . . . . . . . . . . . . .



Chorus A x2

Listen for the tremello pattern.

[GUITAR TWO]

B |------------------------------------------------------|
F#|------------------------------------------------------|
D |------------------------------------------------------|
A |------------------------------------------------------|
E |-------------13-12--13-16----------------13-12--10----|
A |-12---15-12------------------11---14-11---------------|



Chorus C x2

[GUITAR ONE]

B |-------------------------------------------------------|
F#|-------------------------------------------------------|
D |-------------------------------------------------------|
A |-5-555555-------------------4-444444-------------------|
E |-5-555555-------------------4-444444-------------------|
A |-5-555555-------------------4-444444-------------------|
PM  . ......                   . ......

[GUITAR TWO]

B |------------------------------------------------------|
F#|------------------------------------------------------|
D |------------------------------------------------------|
A |------------------------------------------------------|
E |-------------13-12--13-16----------------13-12--10----|
A |-12---15-12------------------11---14-11---------------|



Breakdown B x2

B |-------------------------------------------------------|
F#|-------------------------------------------------------|
D |-------------------------------------------------------|
A |-5-555555-------------------4-444444-------------------|
E |-5-555555-------------------4-444444-------------------|
A |-5-555555-------------------4-444444-------------------|
PM  . ......                   . ......



Breakdown C x2

[GUITAR ONE]

B |-------------------------------------------------------|
F#|-------------------------------------------------------|
D |-------------------------------------------------------|
A |-5-555555-------------------4-444444-------------------|
E |-5-555555-------------------4-444444-------------------|
A |-5-555555-------------------4-444444-------------------|
PM  . ......                   . ......

[GUITAR TWO]

This isn't right, but it's around this shape.

B |-----------------11h15p11-------------------10h14p10---|
F#|---------------13--------13---------------12--------13-|
D |-------------12-------------------------11-------------|
A |-----------13-------------------------12---------------|
E |---------15-------------------------14-----------------|
A |-------------------------------------------------------|


Finish

[GUITAR ONE]

B |----------|
F#|----------|
D |----------|
A |-5-555555-|
E |-5-555555-|
A |-5-555555-|
PM  . ......
Добавлено: 16.06.2012
Другие материалы по этой песне:
  • Аккорды и текст

Страница создана 16.06.2012
http://primanota.ru/and-hell-followed-with/a-throne-enshrouded-chords.htm
Привет, Гость.
Предлагаем пройти революционный курс по гитаре.
Подарок от PrimaNota.Ru, забирай!