PrimaNota.ru - самый крупный в мире бесплатный архив песенных текстов, аккордов, табулатур и нот


And also the trees - Virus Meadow - текст песни, таба, видео

Регистрация Запомнить меня
Войти через:  Facebook Google Twitter Vk Yandex Mail.ru

And also the trees - Virus Meadow - текст песни, таба, видео

Печатать
Просмотров: 108
"Virus Meadow" by And Also The Trees
====================================

tabbed by Jason Miller (jasoncm@juno.com)


Use a warm tone and plenty of spacious
reverb.  Adding a little chorus also helps.
On the album version there is a continous
picking of the open b-string... so if you
have a sampler or delay pedal with infinite
repeat, you can use it to add a little more
depth.

INTRO (until drums begin):

e|-----0-----2-----------------|
B|-0-0---0-0---0-0-0-3\2/3\2/3-|
G|-----------------------------|
D|-----------------------------|
A|-----------------------------|
E|-----------------------------|

MAIN:

e|-----0-----2---------------|
B|-0-0---0-0---0-3\2/3\2/3p0-|
G|---------------------------|
D|---------------------------|
A|---------------------------|
E|---------------------------|

BRIDGE:

e|-0-----0-----0-----0-----2-----|
B|---0-0---0-0---0-0---0-0---0---|
G|-------------------------------|
D|-------------------------------|
A|-------------------------------|
E|-------------------------------|

e|-0-----0-----0-----0--------|
B|---0-0---0-0---0-0----3-2-3-|
G|----------------------------|
D|----------------------------|
A|----------------------------|
E|----------------------------|

CHORUS...... not here yet!
Добавлено: 07.07.2015
Вам также может быть интересно:
Другие материалы по этой песне:
  • Аккорды и текст

Страница создана 02.04.2012
http://primanota.ru/and-also-the-trees/virus-meadow-chords.htm
Привет, Гость.
Предлагаем пройти революционный курс по гитаре.
Подарок от PrimaNota.Ru, забирай!