PrimaNota.ru - самый крупный в мире бесплатный архив песенных текстов, аккордов, табулатур и нот


And also the trees - Slow Pulse Boy - текст песни, бас-таба, видео

Регистрация Запомнить меня
Войти через:  Facebook Google Twitter Vk Yandex Mail.ru

And also the trees - Slow Pulse Boy - текст песни, бас-таба, видео

Печатать
Просмотров: 74
-------------------------------------------------------------------------------
                     SLOW PULSE BOY - And Also The Trees                      
-------------------------------------------------------------------------------
Tabbed by: SPLAM!
Bassist: Steven Burrows
Tuning: EADG

Strummed riff (first appears at around 2:02)
  1 + 2 + 3 + 4 +  1 + 2 + 3 + 4 +  1 + 2 + 3 + 4 +  1 + 2 + 3 + 4 + 
G|----------------|----------------|----------------|----------------|
D|5-555-5---555-7-|3-333-3---333-5-|--------------3-|--------------3-|
A|----------------|----------------|5-555-5---555---|3-333-3---333---| x3
E|----------------|----------------|----------------|----------------|

Then a slide on G:
E|3\

Melodic riff (first appears at around 2:37)
  1 + 2 + 3 + 4 +         1 + 2 + 3 + 4 +  
G|----------------|      |----------------|
D|5---------------|      |3---------------|
A|----6-56.-6-5-6-| x4   |----6-56.-6-5-6-| x4
E|----------------|      |----------------|

Keep repeating this pattern until the end of "..filled our veins with frenzy".
After that play the first part of the riff 8 times.

Outro (at the start of "So we chase the explosions...")
  1 + 2 + 3 + 4 +  1 + 2 + 3 + 4 +  1 + 2 + 3 + 4 +  1 + 2 + 3 + 4 + 
G|----------------|----------------|----------------|----------------|
D|5---------------|----------------|----------------|----------------|
A|----------------|------------6---|5---------------|L---------------| x2
E|----------------|----------------|----------------|----------------|
  1 + 2 + 3 + 4 +  1 + 2 + 3 + 4 +  1 + 2 + 3 + 4 +  1 + 2 + 3 + 4 + 
G|----------------|----------------|----------------|----------------|
D|3---------------|----------------|----------------|----------------|
A|----------------|------------6---|5---------------|L---------------| x2
E|----------------|----------------|----------------|----------------| 
  1 + 2 + 3 + 4 +  1 + 2 + 3 + 4 +  1 + 2 + 3 + 4 +  1 + 2 + 3 + 4 + 
G|----------------|----------------|----------------|----------------|
D|5---------------|----------------|----------------|----------------|
A|----------------|------------6---|5---------------|L---------------| x2
E|----------------|----------------|----------------|----------------|

| \  slide down
| .  dotted note
===============================================================================
Добавлено: 06.02.2016
Другие материалы по этой песне:
  • Аккорды и текст

Страница создана 19.07.2012
http://primanota.ru/and-also-the-trees/slow-pulse-boy-chords.htm
Привет, Гость.
Предлагаем пройти революционный курс по гитаре.
Подарок от PrimaNota.Ru, забирай!