PrimaNota.ru - самый крупный в мире бесплатный архив песенных текстов, аккордов, табулатур и нот


The Ancients - The Rambler - таба, видео

Регистрация Запомнить меня
Войти через:  Facebook Google Twitter Vk Yandex Mail.ru

The Ancients - The Rambler - таба, видео

Печатать
Просмотров: 206
The Rambler - The Ancients

From: The Ancients 2 (2010)

http://theancients.bandcamp.com/album/the-ancients-2

(Nb. There is no 2nd guitar for the first 4 bars of the intro, 
the verses and bars 3,4,7,8 & 9 of the of the two chorus'. 
So buddy up or bust out the looper pedal!)


Intro 

E|---------------------------------|----------------------------------|
B|---------------------------------|----------------------------------|
G|---------------------0-------0---|---------------------0-------0----|
D|---------0-----------------------|---------2-------2----------------|
A|-----2-----------2---------------|-0---3-------3-----------3--------|
E|-3-----------3-----------3-------|----------------------------------|

E|---------------------------------|----------------------------------|
B|---------------------0-------0---|---------1-------0-h-1---0--------|
G|---------0-----------------------|-----------------------------0----|
D|-----2-----------2---------------|-0---0-------0-----------0--------|
A|-3-----------3-----------3-------|----------------------------------|
E|---------------------------------|----------------------------------|

   1st Guitar
E|---------------------------------|----------------------------------|
B|---------------------------------|----------------------------------|
G|---------------------0-------0---|---------------------0-------0----|
D|---------0-----------------------|---------2-------2----------------|
A|-----2-----------2---------------|-0---3-------3-----------3--------|
E|-3-----------3-----------3-------|----------------------------------|
 |                                 |                                  |
 | 2nd Guitar                      |                                  |
E|-7---5---3---5-/-7-------7---10--|-----10---8---7---8p7----7--------|
B|-8---7---5---7-/-8-------8-------|-----8----8---8---8---8------8/---|
G|---------------------------------|----------------------------------|
D|---------------------------------|----------------------------------|
A|---------------------------------|----------------------------------|
E|---------------------------------|----------------------------------|

E|---------------------------------|----------------------------------|
B|---------------------0-------0---|---------1-------0-h-1---0--------|
G|---------0-----------------------|-----------------------------0----|
D|-----2-----------2---------------|-0---0-------0-----------0--------|
A|-3-----------3-----------3-------|----------------------------------|
E|---------------------------------|----------------------------------|
 |                                 |                                  |
 |                                 |                                  |
E|-3-------3---5---3---5---3---5---|-/7------7---7---7\5-----5---7----|
B|-5-------5---7---5---7---5---7---|-/8------8---8---8\7-----7---8----|
G|---------------------------------|----------------------------------|
D|---------------------------------|----------------------------------|
A|---------------------------------|----------------------------------|
E|---------------------------------|----------------------------------|

 
E|---------------------------------|----------------------------------|
B|---------------------------------|----------------------------------|
G|---------------------0-------0---|---------------------0-------0----|
D|---------0-----------------------|---------2-------2----------------|
A|-----2-----------2---------------|-0---3-------3-----------3--------|
E|-3-----------3-----------3-------|----------------------------------|
 |                                 |                                  |
 |                                 |
E|-----------------------------10--|-----10--8---7---7h8p7-------7----|
B|-/8------8--10---8-------8-------|-------------------------8--------|
G|---------------------------------|----------------------------------|
D|---------------------------------|----------------------------------|
A|---------------------------------|----------------------------------|
E|---------------------------------|----------------------------------|

E|---------------------------------|----------------------------------|
B|---------------------0-------0---|---------1-------0-h-1---0--------|
G|---------0-----------------------|-----------------------------0----|
D|-----2-----------2---------------|-0---0-------0-----------0--------|
A|-3-----------3-----------3-------|----------------------------------|
E|---------------------------------|----------------------------------|
 |                                 |                                  |
 |                                 |                                  |
E|/12--12--15--17--15h17p15--15----|-3---3/5-----5-------5---5---7----|
B|-------------------------17--17\-|-5---5/7-----7-------7---7---8----|
G|---------------------------------|----------------------------------|
D|---------------------------------|----------------------------------|
A|---------------------------------|----------------------------------|
E|---------------------------------|----------------------------------|

E|---------------------------------|----------------------------------|
B|---------------------------------|----------------------------------|
G|---------------------0-------0---|---------------------0-------0----|
D|---------0-----------------------|---------2-------2----------------|
A|-----2-----------2---------------|-0---3-------3-----------3--------|
E|-3-----------3-----------3-------|----------------------------------|
 |                                 |                                  |
 |                                 |                                  |
E|-7---5---3---5-/-7-------7---10--|-----10---8---7---8p7-----7-------|
B|-8---7---5---7-/-8-------8-------|-----8----8---8---8---8------8/---|
G|---------------------------------|----------------------------------|
D|---------------------------------|----------------------------------|
A|---------------------------------|----------------------------------|
E|---------------------------------|----------------------------------|

E|---------------------------------|----------------------------------|
B|---------------------0-------0---|---------1-------0-h-1---0--------|
G|---------0-----------------------|-----------------------------0----|
D|-----2-----------2---------------|-0---0-------0-----------0--------|
A|-3-----------3-----------3-------|----------------------------------|
E|---------------------------------|----------------------------------|
 |                                 |                                  |
 |                                 |
E|-3-------3---5---3---5---3---5---|-/7------7---7---7\-5-----7---7---|
B|-5-------5---7---5---7---5---7---|-/8------8---8---8\-7-----8---8---|
G|---------------------------------|----------------------------------|
D|---------------------------------|----------------------------------|
A|---------------------------------|----------------------------------|
E|---------------------------------|----------------------------------|
 
E|---------------------------------|----------------------------------|
B|---------------------------------|----------------------------------|
G|---------------------0-------0---|---------------------0-------0----|
D|---------0-----------------------|---------2-------2----------------|
A|-----2-----------2---------------|-0---3-------3-----------3--------|
E|-3-----------3-----------3-------|----------------------------------|
 |                                 |                                  |
 |                                 |                                  |
E|----/12--15--17--15-----12\--3---|-3/--5-------5--------5-------5---|
B|----/12--15--15--15-----12\--5---|-5/--7-------7--------7-------7---|
G|---------------------------------|----------------------------------|
D|---------------------------------|----------------------------------|
A|---------------------------------|----------------------------------|
E|---------------------------------|----------------------------------|
                                                                
E|---------------------------------|----------------------------------|
B|---------------------0-------0---|---------1-------0-h-1---0--------|
G|---------0-----------------------|-----------------------------0----|
D|-----2-----------2---------------|-0---0-------0-----------0--------|
A|-3-----------3-----------3-------|----------------------------------|
E|---------------------------------|----------------------------------|
 |                                 |                                  |
 |                                 |                                  |
E|-5------------7---7-------7---10-|------10---8---7----8p7----7------|
B|-7------------8---8-------8------|------8----8---8----8---8-----8---|
G|---------------------------------|----------------------------------|
D|---------------------------------|----------------------------------|
A|---------------------------------|----------------------------------|
E|---------------------------------|----------------------------------|


Verse 

   On    his    feet      again        the       heater       bends
E|---------------------------------|----------------------------------|
B|---------------------------------|----------------------------------|
G|---------------------0-------0---|---------------------0-------0----|
D|----------0----------------------|---------2-------2----------------|
A|-----2-----------2---------------|-0---3-------3-----------3--------|
E|-3-----------3-----------3-------|----------------------------------|

     The   road      before           it      never      ends
E|---------------------------------|----------------------------------|
B|---------------------0-------0---|---------1-------0-h-1---0--------|
G|---------0-----------------------|-----------------------------0----|
D|-----2-----------2---------------|-0---0-------0-----------0--------|
A|-3-----------3-----------3-------|----------------------------------|
E|---------------------------------|----------------------------------|

     Chewing      straw                he's    got    no  chores
E|---------------------------------|----------------------------------|
B|---------------------------------|----------------------------------|
G|---------------------0-------0---|---------------------0-------0----|
D|----------0----------------------|---------2-------2----------------|
A|-----2-----------2---------------|-0---3-------3-----------3--------|
E|-3-----------3-----------3-------|----------------------------------|

      The       Rambler               doesn't      keep      score
E|---------------------------------|----------------------------------|
B|---------------------0-------0---|---------1-------0-h-1---0--------|
G|---------0-----------------------|-----------------------------0----|
D|-----2-----------2---------------|-0---0-------0-----------0--------|
A|-3-----------3-----------3-------|----------------------------------|
E|---------------------------------|----------------------------------|


Chorus 

                              the      sound                          
E|---------------------------------|----------------------------------|
B|---------------------------------|----------------------------------|
G|---------------------0-------0---|---------------------0-------0----|
D|----------0----------------------|---------2-------2----------------|
A|-----2-----------2---------------|-0---3-------3-----------3--------|
E|-3-----------3-----------3-------|----------------------------------|
 |                                 |                                  |
 |                                 |                                  |
E|---------------------------------|----------------------------------|
B|---------10-----12---------------|----------------------------------|
G|-------------------------12--14--|-11----------11--12------11-------|
D|---------------------------------|----------------------------------|
A|---------------------------------|----------------------------------|
E|---------------------------------|----------------------------------|

  of   road  trains    rumbling    through     the   night  and   day 
E|---------------------------------|----------------------------------|
B|---------------------0-------0---|---------1-------0-h-1---0--------|
G|---------0-----------------------|-----------------------------0----|
D|-----2-----------2---------------|-0---0-------0-----------0--------|
A|-3-----------3-----------3-------|----------------------------------|
E|---------------------------------|----------------------------------|

                               the       laughing                and
E|---------------------------------|----------------------------------|
B|---------------------------------|----------------------------------|
G|---------------------0-------0---|---------------------0-------0----|
D|----------0----------------------|---------2-------2----------------|
A|-----2-----------2---------------|-0---3-------3-----------3--------|
E|-3-----------3-----------3-------|----------------------------------|
 |                                 |                                  |
 |                                 |                                  |
E|---------------------------------|----------------------------------|
B|---------10-----12---------------|----------------------------------|
G|-------------------------12--14--|-11----------11--12------11-------|
D|---------------------------------|----------------------------------|
A|---------------------------------|----------------------------------|
E|---------------------------------|----------------------------------|

   Cockatoos       see        him       on      his    way
E|---------------------------------|----------------------------------|
B|---------------------0-------0---|---------1-------0-h-1---0--------|
G|---------0-----------------------|-----------------------------0----|
D|-----2-----------2---------------|-0---0-------0-----------0--------|
A|-3-----------3-----------3-------|----------------------------------|
E|---------------------------------|----------------------------------|

E|---------------------------------|
B|---------1-------0-h-1---0-------|
G|-----------------------------0---|
D|-0---0-------0-----------0-------|
A|---------------------------------|
E|---------------------------------|
 

Verse 2

   The   shop   keeper  asks          He   fills   his   flask
E|---------------------------------|----------------------------------|
B|---------------------------------|----------------------------------|
G|---------------------0-------0---|---------------------0-------0----|
D|----------0----------------------|---------2-------2----------------|
A|-----2-----------2---------------|-0---3-------3-----------3--------|
E|-3-----------3-----------3-------|----------------------------------|

      Wish       him        well       around    these       parts
E|---------------------------------|----------------------------------|
B|---------------------0-------0---|---------1-------0-h-1---0--------|
G|---------0-----------------------|-----------------------------0----|
D|-----2-----------2---------------|-0---0-------0-----------0--------|
A|-3-----------3-----------3-------|----------------------------------|
E|---------------------------------|----------------------------------|

   The       heavy      clouds         there's    work    in      town 
E|---------------------------------|----------------------------------|
B|---------------------------------|----------------------------------|
G|---------------------0-------0---|---------------------0-------0----|
D|----------0----------------------|---------2-------2----------------|
A|-----2-----------2---------------|-0---3-------3-----------3--------|
E|-3-----------3-----------3-------|----------------------------------|

   A    place     to      stay,      rest      and        shout
E|---------------------------------|----------------------------------|
B|---------------------0-------0---|---------1-------0-h-1---0--------|
G|---------0-----------------------|-----------------------------0----|
D|-----2-----------2---------------|-0---0-------0-----------0--------|
A|-3-----------3-----------3-------|----------------------------------|
E|---------------------------------|----------------------------------|


Chorus 

                                     He's     found  
E|---------------------------------|----------------------------------|
B|---------------------------------|----------------------------------|
G|---------------------0-------0---|---------------------0-------0----|
D|----------0----------------------|---------2-------2----------------|
A|-----2-----------2---------------|-0---3-------3-----------3--------|
E|-3-----------3-----------3-------|----------------------------------|
 |                                 |                                  |
 |                                 |                                  |
E|---------------------------------|----------------------------------|
B|---------10-----12---------------|----------------------------------|
G|-------------------------12--14--|-11----------11--12------11-------|
D|---------------------------------|----------------------------------|
A|---------------------------------|----------------------------------|
E|---------------------------------|----------------------------------|

   That     people       are         generally         kind
E|---------------------------------|----------------------------------|
B|---------------------0-------0---|---------1-------0-h-1---0--------|
G|---------0-----------------------|-----------------------------0----|
D|-----2-----------2---------------|-0---0-------0-----------0--------|
A|-3-----------3-----------3-------|----------------------------------|
E|---------------------------------|----------------------------------|

                                     But           knows  
E|---------------------------------|----------------------------------|
B|---------------------------------|----------------------------------|
G|---------------------0-------0---|---------------------0-------0----|
D|----------0----------------------|---------2-------2----------------|
A|-----2-----------2---------------|-0---3-------3-----------3--------|
E|-3-----------3-----------3-------|----------------------------------|
 |                                 |                                  |
 |                                 |                                  |
E|---------------------------------|----------------------------------|
B|---------10-----12---------------|----------------------------------|
G|-------------------------12--14--|-11----------11--12------11-------|
D|---------------------------------|----------------------------------|
A|---------------------------------|----------------------------------|
E|---------------------------------|----------------------------------|

   To      watch      his    back    all    of    the    time
E|---------------------------------|----------------------------------|
B|---------------------0-------0---|---------1-------0-h-1---0--------|
G|---------0-----------------------|-----------------------------0----|
D|-----2-----------2---------------|-0---0-------0-----------0--------|
A|-3-----------3-----------3-------|----------------------------------|
E|---------------------------------|----------------------------------|

E|---------------------------------|
B|---------1-------0-h-1---0-------|
G|-----------------------------0---|
D|-0---0-------0-----------0-------|
A|---------------------------------|
E|---------------------------------|


Outro 

   
E|---------------------------------|----------------------------------|
B|---------------------------------|----------------------------------|
G|---------------------0-------0---|---------------------0-------0----|
D|---------0-----------------------|---------2-------2----------------|
A|-----2-----------2---------------|-0---3-------3-----------3--------|
E|-3-----------3-----------3-------|----------------------------------|
 |                                 |                                  |
 |                                 |                                  |
E|-7---5---3---5-/-7-------7---10--|-----10---8---7---8p7----7--------|
B|-8---7---5---7-/-8-------8-------|-----8----8---8---8---8------8/---|
G|---------------------------------|----------------------------------|
D|---------------------------------|----------------------------------|
A|---------------------------------|----------------------------------|
E|---------------------------------|----------------------------------|

E|---------------------------------|----------------------------------|
B|---------------------0-------0---|---------1-------0-h-1---0--------|
G|---------0-----------------------|-----------------------------0----|
D|-----2-----------2---------------|-0---0-------0-----------0--------|
A|-3-----------3-----------3-------|----------------------------------|
E|---------------------------------|----------------------------------|
 |                                 |                                  |
 |                                 |                                  |
E|-3-------3---5---3---5---3---5---|-/7------7---7---7\5-----5/--7----|
B|-5-------5---7---5---7---5---7---|-/8------8---8---8\7-----7/--8----|
G|---------------------------------|----------------------------------|
D|---------------------------------|----------------------------------|
A|---------------------------------|----------------------------------|
E|---------------------------------|----------------------------------|

E|---------------------------------|----------------------------------|
B|---------------------------------|----------------------------------|
G|---------------------0-------0---|---------------------0-------0----|
D|---------0-----------------------|---------2-------2----------------|
A|-----2-----------2---------------|-0---3-------3-----------3--------|
E|-3-----------3-----------3-------|----------------------------------|
 |                                 |                                  |
 |                                 |
E|-----------------------------10--|-----10--8---7---7h8p7-------7----|
B|-/8------8--10---8-------8-------|-------------------------8--------|
G|---------------------------------|----------------------------------|
D|---------------------------------|----------------------------------|
A|---------------------------------|----------------------------------|
E|---------------------------------|----------------------------------|

E|---------------------------------|----------------------------------|
B|---------------------0-------0---|---------1-------0-h-1---0--------|
G|---------0-----------------------|-----------------------------0----|
D|-----2-----------2---------------|-0---0-------0-----------0--------|
A|-3-----------3-----------3-------|----------------------------------|
E|---------------------------------|----------------------------------|
 |                                 |                                  |
 |                                 |                                  |
E|/12--12--15--17--15h17p15--15----|-3---3/5-----5-------5---5---7----|
B|-------------------------17--17\-|-5---5/7-----7-------7---7---8----|
G|---------------------------------|----------------------------------|
D|---------------------------------|----------------------------------|
A|---------------------------------|----------------------------------|
E|---------------------------------|----------------------------------|

E|---------------------------------|----------------------------------|
B|---------------------------------|----------------------------------|
G|---------------------0-------0---|---------------------0-------0----|
D|---------0-----------------------|---------2-------2----------------|
A|-----2-----------2---------------|-0---3-------3-----------3--------|
E|-3-----------3-----------3-------|----------------------------------|
 |                                 |                                  |
 |                                 |                                  |
E|-7---5---3---5-/-7-------7---10--|-----10---8---7---8p7-----7-------|
B|-8---7---5---7-/-8-------8-------|-----8----8---8---8---8------8/---|
G|---------------------------------|----------------------------------|
D|---------------------------------|----------------------------------|
A|---------------------------------|----------------------------------|
E|---------------------------------|----------------------------------|
 
E|---------------------------------|----------------------------------|
B|---------------------0-------0---|---------1-------0-h-1---0--------|
G|---------0-----------------------|-----------------------------0----|
D|-----2-----------2---------------|-0---0-------0-----------0--------|
A|-3-----------3-----------3-------|----------------------------------|
E|---------------------------------|----------------------------------|
 |                                 |                                  |
 |                                 |
E|-3-------3---5---3---5---3---5---|-/7------7---7---7\5-----5---7----|
B|-5-------5---7---5---7---5---7---|-/8------8---8---8\7-----7---8----|
G|---------------------------------|----------------------------------|
D|---------------------------------|----------------------------------|
A|---------------------------------|----------------------------------|
E|---------------------------------|----------------------------------|
 
E|---------------------------------|----------------------------------|
B|---------------------------------|----------------------------------|
G|---------------------0-------0---|---------------------0-------0----|
D|---------0-----------------------|---------2-------2----------------|
A|-----2-----------2---------------|-0---3-------3-----------3--------|
E|-3-----------3-----------3-------|----------------------------------|
 |                                 |                                  |
 |                                 |                                  |
E|----/12--15--17--15-----12\--3---|-3/--5-------5--------5-------5---|
B|----/12--15--15--15-----12\--5---|-5/--7-------7--------7-------7---|
G|---------------------------------|----------------------------------|
D|---------------------------------|----------------------------------|
A|---------------------------------|----------------------------------|
E|---------------------------------|----------------------------------|
        
E|---------------------------------|----------------------------------|
B|---------------------0-------0---|---------1-------0-h-1---0--------|
G|---------0-----------------------|-----------------------------0----|
D|-----2-----------2---------------|-0---0-------0-----------0--------|
A|-3-----------3-----------3-------|----------------------------------|
E|---------------------------------|----------------------------------|
 |                                 |                                  |
 |                                 |                                  |
E|-5------------7---7-------7---10-|------10---8---7----8p7----7---10-|
B|-7------------8---8-------8------|------8----8---8----8---8--8------|
G|---------------------------------|----------------------------------|
D|---------------------------------|----------------------------------|
A|---------------------------------|----------------------------------|
E|---------------------------------|----------------------------------|

E|---------------------------------|
B|---------1-------0-h-1---0-------|
G|-----------------------------0---|
D|-0---0-------0-----------0-------|
A|---------------------------------|
E|---------------------------------|
 |                                 |                                  
 |                                 |                                  
E|-----10--8---7---8p7------7------|--------|
B|-----8---8---8---8-----8---------|--8-----|
G|---------------------------------|--------|
D|---------------------------------|--------|
A|---------------------------------|--------|
E|---------------------------------|--------|

The End
Добавлено: 08.08.2015
Другие материалы по этой песне:
  • Аккорды и текст

Страница создана 08.08.2015
http://primanota.ru/ancients/rambler-chords.htm
Привет, Гость.
Предлагаем пройти революционный курс по гитаре.
Подарок от PrimaNota.Ru, забирай!