PrimaNota.ru - самый крупный в мире бесплатный архив песенных текстов, аккордов, табулатур и нот


The Ancients - Christine - таба, видео

Регистрация Запомнить меня
Войти через:  Facebook Google Twitter Vk Yandex Mail.ru

The Ancients - Christine - таба, видео

Печатать
Просмотров: 38
Christine - The Ancients

The Ancients 2 (2010)

Tabbed by Jucko

Tuning: EADGBD 

Intro

D|-----7h9-7-------------------------7h9-7---|
B|-7-7-------7/-10-10\-7-7-5-5-5/7-7-------7-|
G|-------------------------------------------|
D|-------------------------------------------| X 3
A|-------------------------------------------|
E|-------------------------------------------|

(... then)

D|-----7h9-7---------------------------------|
B|-7-7-------7/-10-10\-7-7-5-5-5h7-7-5\--3---|
G|-----------------------------------------2-|
D|-------------------------------------------|
A|-------------------------------------------|
E|-------------------------------------------|

Verse 1

   Strangers         through the  grass                           
D|---0^-0------------0^-0--------------3--3-------------3----------|
B|---1^----1---1-----1^----1---1----1^------1--------1^-----1------|
G|---2^------2-------2^------2------0^--------0------0^-------0----|
D|-3---------------3----------------2^---------------2^------------|
A|--------------------------------3----------------3---------------|
E|-----------------------------------------------------------------|
                                     
   Watch and wait          in the house of glass                  
D|---0^-0------------0^-0--------------3--3-------------3----------|
B|---1^----1---1-----1^----1---1----1^------1--------1^-----1------|
G|---2^------2-------2^------2------0^--------0------0^-------0----|
D|-3---------------3----------------2^---------------2^------------|
A|--------------------------------3----------------3---------------|
E|-----------------------------------------------------------------|

   Hide-away               in the dark                            
D|---0^-0------------0^-0--------------3--3-------------3----------|
B|---1^----1---1-----1^----1---1----1^------1--------1^-----1------|
G|---2^------2-------2^------2------0^--------0------0^-------0----|
D|-3---------------3----------------2^---------------2^------------|
A|--------------------------------3----------------3---------------|
E|-----------------------------------------------------------------|

   White ghosts wake me,  follow  endlessly                  
D|---0^-0------------0^-0--------------3--3-------------3----------|
B|---1^----1---1-----1^----1---1----1^------1--------1^-----1------|
G|---2^------2-------2^------2------0^--------0------0^-------0----|
D|-3---------------3----------------2^---------------2^------------|
A|--------------------------------3----------------3---------------|
E|-----------------------------------------------------------------|

Bridge 

D|-----5h7-5-7-7-7-7-----5h7-5-------------5h7-5---------------5h7-5---------|
B|-5-5---------------5-5-------5-5-5-5-5-5-------5-5-5-5-5-5-5-------5-5-5-5-|
G|---------------------------------------------------------------------------|
D|---------------------------------------------------------------------------|
A|---------------------------------------------------------------------------|
E|---------------------------------------------------------------------------|
 |                                                                           |
 |                                                                           | 
D|----0^--0-------------0---0-------------0^--0---------------0^--0----------|
B|----0^--------0-------1^--------1-------3^--------3---------3^--------3----|
G|----0^------0---0-----2^------2----2----4^------4---4-------4^------4------|
D|-2--2^-------------3--3^-------------5--5^---------------5--5^-------------|
A|---------------------------------------------------------------------------|
E|---------------------------------------------------------------------------|

D|-----5h7-5-7-7-7-7-----5h7-5-------------5h7-5---------------5h7-5---------|
B|-5-5---------------5-5-------5-5-5-5-5-5-------5-5-5-5-5-5-5-------5-5-5-5-|
G|---------------------------------------------------------------------------|
D|---------------------------------------------------------------------------|
A|---------------------------------------------------------------------------|
E|---------------------------------------------------------------------------|
 |                                                                           | 
 |                                                                           |
D|----0^--0-------------0---0-------------0^--0---------------0^--0----------|
B|----0^--------0-------1^--------1-------3^--------3---------3^--------3----|
G|----0^------0---0-----2^------2----2----4^------4---4-------4^------4---4--|
D|-2--2^-------------3--3^-------------5--5^---------------5--5^-------------|
A|---------------------------------------------------------------------------|
E|---------------------------------------------------------------------------|


Verse 2 

   She sits               on her  own                             
D|---0^-0------------0^-0--------------3--3-------------3----------|
B|---1^----1---1-----1^----1---1----1^------1--------1^-----1------|
G|---2^------2-------2^------2------0^--------0------0^-------0----|
D|-3---------------3----------------2^---------------2^------------|
A|--------------------------------3----------------3---------------|
E|-----------------------------------------------------------------|

  Taken              from her own home    
D|---0^-0------------0^-0--------------3--3-------------3----------|
B|---1^----1---1-----1^----1---1----1^------1--------1^-----1------|
G|---2^------2-------2^------2------0^--------0------0^-------0----|
D|-3---------------3----------------2^---------------2^------------|
A|--------------------------------3----------------3---------------|
E|-----------------------------------------------------------------|
  
   You wont see her          for  days                             
D|---0^-0------------0^-0--------------3--3-------------3----------|
B|---1^----1---1-----1^----1---1----1^------1--------1^-----1------|
G|---2^------2-------2^------2------0^--------0------0^-------0----|
D|-3---------------3----------------2^---------------2^------------|
A|--------------------------------3----------------3---------------|
E|-----------------------------------------------------------------|

   Then she turns              us away                           
D|---0^-0------------0^-0--------------3--3-------------3----------|
B|---1^----1---1-----1^----1---1----1^------1--------1^-----1------|
G|---2^------2-------2^------2------0^--------0------0^-------0----|
D|-3---------------3----------------2^---------------2^------------|
A|--------------------------------3----------------3---------------|
E|-----------------------------------------------------------------|
  
Outro 

Repeat Bridge x 2





Notation key:
/ - Slide up
\ - Slide down
^ - Rake the strings
Добавлено: 11.12.2015
Вам также может быть интересно:
Другие материалы по этой песне:
  • Аккорды и текст

Страница создана 11.12.2015
http://primanota.ru/ancients/christine-chords.htm
Привет, Гость.
Предлагаем пройти революционный курс по гитаре.
Подарок от PrimaNota.Ru, забирай!