PrimaNota.ru - самый крупный в мире бесплатный архив песенных текстов, аккордов, табулатур и нот


Ancient - The Call Of The Absu Deep - текст песни, таба, бас-таба, видео

Регистрация Запомнить меня
Войти через:  Facebook Google Twitter Vk Yandex Mail.ru

Ancient - The Call Of The Absu Deep - текст песни, таба, бас-таба, видео

Печатать
Просмотров: 127
As recorded by Ancient
(From the 1994 Album SVARTALVHEIM)

Transcribed by Historiae
	

Words by Grim Music by Aphazel

E5
0 2 2 x x x
	
B5
x 2 4 x x x
	
D5
x 5 7 x x x
	
C5
x 3 5 x x x
B5/F#
2 2 4 x x x
	
D5/A
5 5 7 7 x x
	
G5
3 5 x x x x
	
F#5
2 4 x x x x
A5
5 7 x x x x
	
C#5
x 4 6 x x x
	
G#5
4 6 x x x x
	
C5VIII
8 10 10 x x x
B5VII
7 9 9 x x x
	
C#sus2
x 4 6 8 x x
	
F5
1 3 x x x x
	
Asus4
5 7 0 x x x
Bm
7 5 0 x x x
	
G5open
3 5 0 x x x
	
Dmaj7/F#
2 4 0 x x x
	
Csus2
8 10 0 x x x
BmVII
7 9 0 x x x
	
Esus4
0 0 x x x x
	
C/E
0 3 x x x x
	
F#m/A
x 0 4 x x x
A
x 0 7 x x x

Gtr I (E A D G B E) - 'Distorted Guitar'
Gtr II (E A D G B E) - 'Distorted Guitar II'
Gtr III (E A D G B E) - 'Acoustic Guitar'

 Intro
  Q=120
  E5  B5     D5   E5  B5     C5    D5
 4/4
  Gtrs I, II
      ~      ~        ~      ~
   Q  Q  E E Q     Q  Q  a E E a E S  S
|---------------|------------------------|
|---------------|------------------------|
|---------------|------------------------|
|-!2--4------7--|-!2--4------5-----7p=5--|
|-!2--2--2-5-5--|-!2--2--0h3-3-0h5-5-(5)-|
|-!0------------|-!0---------------------|


  B5  B5          E5  B5     C5    D5
      ~      ~        ~      ~
   Q  Q  E E Q     Q  Q  a E E a E S  S
|---------------|-------------------------|
|---------------|-------------------------|
|---------------|-------------------------|
|-!2--4------7--|-!2--4------5-----7p=5---|
|-!2--2--2S5----|-!2--2--0h3-3-0h5-5-(5)--|
|-!0------------|-!0----------------------|


    E5 B5/F#  D5/A      E5 B5/G5F#A5G5  E5 B5/F#  D5/A      E5 B5/G5F#E5F#5
    Q  Q  E E E S  S    Q  Q  E E E E   Q  Q  E E E S  S    Q  Q  E E E E
||--------------------|---------------|-------------------|----------------||
||o-------------------|---------------|-------------------|---------------o||
||------------7-------|---------------|-----------7-------|----------------||
||-----4------7-5h=7--|-2--4----------|----4------7-5h=7--|-2--4-----------||
||o-2--2------5-5-(5)-|-2--2--5-4-7-5-|-2--2------5-5-(5)-|-2--2--5-4-2-4-o||
||--0--2--7p5-5-------|-0--2--3-2-5-3-|-0--2--7p5-5-------|-0--2--3-2-0-2--||


 Verse
  $
  B5                                                C#5
  S S S S S S S S S S S S S S S S   S S S S S S S S S S S S S S S S
|---------------------------------|---------------------------------|
|---------------------------------|---------------------------------|
|---------------------------------|---------------------------------|
|-4-4-4-4-4-4-4-4-4-4-4-4-4-4-4-4-|-4-4-4-4-4-4-4-4-6-6-6-6-6-6-6-6-|
|-2-2-2-2-2-2-2-2-2-2-2-2-2-2-2-2-|-2-2-2-2-2-2-2-2-4-4-4-4-4-4-4-4-|
|---------------------------------|---------------------------------|


  D5
  S S S S S S S S S S S S S S S S
|------------------------------------|
|------------------------------------|
|------------------------------------|
|-7-7-7-7-7-7-7-7-7-7-7-7-7-7-7-7----|
|-5-5-5-5-5-5-5-5-5-5-5-5-5-5-5-5----|
|------------------------------------|


  C#D5            C#D5              B5
  S S S S S S S S S S S S S S S S   S S S S S S S S S S S S S S S S
|---------------------------------|----------------------------------|
|---------------------------------|----------------------------------|
|---------------------------------|----------------------------------|
|-6-7-7-7-7-7-7-7-6S7-7-7-7-7-7-7-|-4-4-4-4-4-4-4-4-4-4-4-4-4-4-4-4--|
|-4S5-5-5-5-5-5-5-4-5-5-5-5-5-5-5-|-2-2-2-2-2-2-2-2-2-2-2-2-2-2-2-2--|
|---------------------------------|----------------------------------|


                  C#5               D5
  S S S S S S S S S S S S S S S S   S S S S S S S S S S S S S S S S
|---------------------------------|----------------------------------|
|---------------------------------|----------------------------------|
|---------------------------------|----------------------------------|
|-4-4-4-4-4-4-4-4-6-6-6-6-6-6-6-6-|-7-7-7-7-7-7-7-7-7-7-7-7-7-7-7-7--|
|-2-2-2-2-2-2-2-2-4-4-4-4-4-4-4-4-|-5-5-5-5-5-5-5-5-5-5-5-5-5-5-5-5--|
|---------------------------------|----------------------------------|


  C#D5            C#D5
                                      Gtr I
  S S S S S S S S S S S S S S S S     S S S S S S S S S S S S S S S S
|---------------------------------||----------------------------------|
|---------------------------------||o---------------------------------|
|---------------------------------||----------------------------------|
|-6-7-7-7-7-7-7-7-6S7-7-7-7-7-7-7-||----------------------------------|
|-4S5-5-5-5-5-5-5-4-5-5-5-5-5-5-5-||o-6-6-6-6-6-6-6-6-6-6-6-6-6-6-6-6-|
|---------------------------------||--4-4-4-4-4-4-4-4-4-4-4-4-4-4-4-4-|
|
|                                     Gtr II
| W                                   S S S S S S S S S S S S S S S S
|---------------------------------||----------------------------------|
|---------------------------------||o---------------------------------|
|---------------------------------||----------------------------------|
|---------------------------------||----------------------------------|
|---------------------------------||o-6-6-6-6-6-6-6-6-6-6-6-6-6-6-6-6-|
|---------------------------------||--4-4-4-4-4-4-4-4-4-4-4-4-4-4-4-4-|


  S S S S S S S S S S S S S S S S
|-------------------------------------||
|------------------------------------o||
|-------------------------------------||
|-------------------------------------||
|-6-6-6-6-6-6-6-6-6-6-6-6-6-6-6-6----o||
|-4-4-4-4-4-4-4-4-4-4-4-4-4-4-4-4-----||
|
| S S S S S S S S S S S S S S S S
|-------------------------------------||
|------------------------------------o||
|-------------------------------------||
|-------------------------------------||
|-6-6-6-6-6-6-6-6-4h5h7p5p4p0-6-6----o||
|-4-4-4-4-4-4-4-4-------------4-4-----||


  B5VII     C5VIII         A5        G5 A5
 12/8
  Gtrs I, II
  E S S S S  E  S  S  S  S E S S S S E. E.
|------------------------------------------|
|------------------------------------------|
|------------------------------------------|
|-9---------10-------------7---------5--7--|
|-9-9-9-9-9-10-10-10-10-10-7-7-7-7-7-5--7--|
|-7-7-7-7-7--8--8--8--8--8-5-5-5-5-5-3--5--|


  B5VII
  E S S S S E S S S S E S S S S E S S S S
|------------------------------------------|
|------------------------------------------|
|------------------------------------------|
|-9---------9---------9---------9----------|
|-9-9-9-9-9-9-9-9-9-9-9-9-9-9-9-9-9-9-9-9--|
|-7-7-7-7-7-7-7-7-7-7-7-7-7-7-7-7-7-7-7-7--|


   Chorus
    C#5                 C#suC#5 C#suC#5
    E S S S S E S S S S E E S S E E S S
||--------------------------------------|
||o-------------------------------------|
||--6---------6---------8-8-----8-8-----|
||--6-6-6-6-6-6-6-6-6-6-6-6-6-6-6-6-6-6-|
||o-4-4-4-4-4-4-4-4-4-4-4-4-4-4-4-4-4-4-|
||--------------------------------------|


  A5                  F#m/A       A     Ab/A
  E S S S S E S S S S S S S S S S S S S S S S
|----------------------------------------------|
|----------------------------------------------|
|-2---------2----------------------------------|
|-2-2-2-2-2-2-2-2-2-2-4-4-4-4-4-4-7-7-7-6-6-6--|
|-0-0-0-0-0-0-0-0-0-0-0-0-0-0-0-0-0-0-0-0-0-0--|
|----------------------------------------------|


  C#5                 C#suC#5 C#suC#5
  E S S S S E S S S S E E S S E E S S
|-------------------------------------|
|-------------------------------------|
|-6---------6---------8-8-----8-8-----|
|-6-6-6-6-6-6-6-6-6-6-6-6-6-6-6-6-6-6-|
|-4-4-4-4-4-4-4-4-4-4-4-4-4-4-4-4-4-4-|
|-------------------------------------|


  A5                  F#m/A       A5    Eb/A
  E S S S S E S S S S S S S S S S S S S S S S
|------------------------------------------------||
|-----------------------------------------------o||
|-2---------2------------------------------------||
|-2-2-2-2-2-2-2-2-2-2-4-4-4-4-4-4-2-2-2-1-1-1----||
|-0-0-0-0-0-0-0-0-0-0-0-0-0-0-0-0-0-0-0-0-0-0---o||
|------------------------------------------------||


                                    D.S.
  C#5
  E S S S S E S S S S E S S S S E S S S S
|-----------------------------------------|
|-----------------------------------------|
|-6---------6---------6---------6---------|
|-6-6-6-6-6-6-6-6-6-6-6-6-6-6-6-6-6-6-6-6-|
|-4-4-4-4-4-4-4-4-4-4-4-4-4-4-4-4-4-4-4-4-|
|-----------------------------------------|


 Bridge
  E5
  Gtr II
  S S S S S S S S S S S S S S S S S S S S S S S S
|-------------------------------------------------|
|-------------------------------------------------|
|-------------------------------------------------|
|-5-5-5-5-5-5-4-4-4-5-5-5-7-7-7-7-7-7-5-5-5-7-7-7-|
|-7-7-7-7-7-7-7-7-7-7-7-7-7-7-7-7-7-7-7-7-7-7-7-7-|
|-0-0-0-0-0-0-0-0-0-0-0-0-0-0-0-0-0-0-0-0-0-0-0-0-|
|
| Gtr I
| S S S S S S S S S S S S S S S S S S S S S S S S
|-------------------------------------------------|
|-------------------------------------------------|
|-------------------------------------------------|
|-2-2-2-2-2-2-2-2-2-2-2-2-2-2-2-2-2-2-2-2-2-2-2-2-|
|-2-2-2-2-2-2-2-2-2-2-2-2-2-2-2-2-2-2-2-2-2-2-2-2-|
|-0-0-0-0-0-0-0-0-0-0-0-0-0-0-0-0-0-0-0-0-0-0-0-0-|


  S S S S S S S S S S S S  S  S  S  S  S  S S S S S S S
|--------------------------------------------------------|
|--------------------------------------------------------|
|--------------------------------------------------------|
|-9-9-9-9-9-9-7-7-7-9-9-9-10-10-10-10-10-10-9-9-9-7-7-7--|
|-7-7-7-7-7-7-7-7-7-7-7-7--7--7--7--7--7--7-7-7-7-7-7-7--|
|-0-0-0-0-0-0-0-0-0-0-0-0--0--0--0--0--0--0-0-0-0-0-0-0--|
|
| S S S S S S S S S S S S  S  S  S  S  S  S S S S S S S
|--------------------------------------------------------|
|--------------------------------------------------------|
|--------------------------------------------------------|
|-2-2-2-2-2-2-2-2-2-2-2-2--2--2--2--2--2--2-2-2-2-2-2-2--|
|-2-2-2-2-2-2-2-2-2-2-2-2--2--2--2--2--2--2-2-2-2-2-2-2--|
|-0-0-0-0-0-0-0-0-0-0-0-0--0--0--0--0--0--0-0-0-0-0-0-0--|


  G5
  S S S S S S S S S S S S S S S S S S S S S S S S
|-------------------------------------------------|
|-------------------------------------------------|
|-------------------------------------------------|
|-------------------------------------------------|
|-2-2-2-2-2-2-3-3-3-0-0-0-2-2-2-2-2-2-3-3-3-0-0-0-|
|-3-3-3-3-3-3-3-3-3-3-3-3-3-3-3-3-3-3-3-3-3-3-3-3-|
|
| S S S S S S S S S S S S S S S S S S S S S S S S
|-------------------------------------------------|
|-------------------------------------------------|
|-------------------------------------------------|
|-------------------------------------------------|
|-5-5-5-5-5-5-5-5-5-5-5-5-5-5-5-5-5-5-5-5-5-5-5-5-|
|-3-3-3-3-3-3-3-3-3-3-3-3-3-3-3-3-3-3-3-3-3-3-3-3-|


  F#5                     F5
  S S S S S S S S S S S S S S S S S S S S S S S S
|--------------------------------------------------|
|--------------------------------------------------|
|--------------------------------------------------|
|--------------------------------------------------|
|-2-2-2-2-2-2-3-3-3-0-0-0-2-2-2-2-2-2-3-3-3-0-0-0--|
|-2-2-2-2-2-2-2-2-2-2-2-2-1-1-1-1-1-1-1-1-1-1-1-1--|
|
| S S S S S S S S S S S S S S S S S S S S S S S S
|--------------------------------------------------|
|--------------------------------------------------|
|--------------------------------------------------|
|--------------------------------------------------|
|-4-4-4-4-4-4-4-4-4-4-4-4-3-3-3-3-3-3-3-3-3-3-3-3--|
|-2-2-2-2-2-2-2-2-2-2-2-2-1-1-1-1-1-1-1-1-1-1-1-1--|


  E5                Esus4    E5       C/E               E5       Esus4
   S  S  S  S  S  S  S  S  S  S  S  S  S  S  S  S  S  S  S  S  S  S  S  S
|-------------------------------------------------------------------------|
|-------------------------------------------------------------------------|
|-------------------------------------------------------------------------|
|-16-16-16-16-16-16-14-14-14-16-16-16-17-17-17-17-17-17-16-16-16-14-14-14-|
|-14-14-14-14-14-14-12-12-12-14-14-14-15-15-15-15-15-15-14-14-14-12-12-12-|
|--0--0--0--0--0--0--0--0--0--0--0--0--0--0--0--0--0--0--0--0--0--0--0--0-|
|
|  S  S  S  S  S  S  S  S  S  S  S  S  S  S  S  S  S  S  S  S  S  S  S  S
|-------------------------------------------------------------------------|
|-------------------------------------------------------------------------|
|-------------------------------------------------------------------------|
|-------------------------------------------------------------------------|
|--2--2--2--2--2--2--0--0--0--2--2--2--3--3--3--3--3--3--2--2--2--0--0--0-|
|--0--0--0--0--0--0--0--0--0--0--0--0--0--0--0--0--0--0--0--0--0--0--0--0-|


  E5                Esus4             C/E               Esus4
   S  S  S  S  S  S  S  S  S  S  S  S  S  S  S  S  S  S  S  S  S  S  S  S
|--------------------------------------------------------------------------|
|--------------------------------------------------------------------------|
|--------------------------------------------------------------------------|
|-16-16-16-16-16-16-14-14-14-14-14-14-17-17-17-17-17-17-14-14-14-14-14-14--|
|-14-14-14-14-14-14-12-12-12-12-12-12-15-15-15-15-15-15-12-12-12-12-12-12--|
|--0--0--0--0--0--0--0--0--0--0--0--0--0--0--0--0--0--0--0--0--0--0--0--0--|
|
|  S  S  S  S  S  S  S  S  S  S  S  S  S  S  S  S  S  S  S  S  S  S  S  S
|--------------------------------------------------------------------------|
|--------------------------------------------------------------------------|
|--------------------------------------------------------------------------|
|--------------------------------------------------------------------------|
|--2--2--2--2--2--2--0--0--0--0--0--0--3--3--3--3--3--3--0--0--0--0--0--0--|
|--0--0--0--0--0--0--0--0--0--0--0--0--0--0--0--0--0--0--0--0--0--0--0--0--|


  G5
  S S S S S S S S S S S S S S S S S S S S S S S S
|-------------------------------------------------|
|-------------------------------------------------|
|-------------------------------------------------|
|-------------------------------------------------|
|-2-2-2-2-2-2-3-3-3-0-0-0-2-2-2-2-2-2-3-3-3-0-0-0-|
|-3-3-3-3-3-3-3-3-3-3-3-3-3-3-3-3-3-3-3-3-3-3-3-3-|
|
| S S S S S S S S S S S S S S S S S S S S S S S S
|-------------------------------------------------|
|-------------------------------------------------|
|-------------------------------------------------|
|-------------------------------------------------|
|-5-5-5-5-5-5-5-5-5-5-5-5-5-5-5-5-5-5-5-5-5-5-5-5-|
|-3-3-3-3-3-3-3-3-3-3-3-3-3-3-3-3-3-3-3-3-3-3-3-3-|


  F#5                     F5
  S S S S S S S S S S S S S S S S S S S S S S S S
|--------------------------------------------------|
|--------------------------------------------------|
|--------------------------------------------------|
|--------------------------------------------------|
|-2-2-2-2-2-2-3-3-3-0-0-0-2-2-2-2-2-2-3-3-3-0-0-0--|
|-2-2-2-2-2-2-2-2-2-2-2-2-1-1-1-1-1-1-1-1-1-1-1-1--|
|
| S S S S S S S S S S S S S S S S S S S S S S S S
|--------------------------------------------------|
|--------------------------------------------------|
|--------------------------------------------------|
|--------------------------------------------------|
|-4-4-4-4-4-4-4-4-4-4-4-4-3-3-3-3-3-3-3-3-3-3-3-3--|
|-2-2-2-2-2-2-2-2-2-2-2-2-1-1-1-1-1-1-1-1-1-1-1-1--|


  E5
                                                                      6/8
                                                    ~~~~~~~~~~~~
  S S S S S S S S S S S S S S S S S S S S S S S S   H.      +H.        +H.
|-------------------------------------------------|------------------|--------|
|-------------------------------------------------|------------------|--------|
|-------------------------------------------------|------------------|--------|
|-------------------------------------------------|-2-------(2)------|-(2)----|
|-2-2-2-2-2-2-3-3-3-5-5-5-3-3-3-2-2-2-0-0-0-2-2-2-|-2-------(2)------|-(2)----|
|-0-0-0-0-0-0-0-0-0-0-0-0-0-0-0-0-0-0-0-0-0-0-0-0-|-0-------(0)------|-(0)----|
|
|                                                   >
|                                                   ~~~~~~~~~~~~~~~~~~~~~~~
| S S S S S S S S S S S S S S S S S S S S S S S S   H.      +H.        +H.
|-------------------------------------------------|------------------|--------|
|-------------------------------------------------|------------------|--------|
|-------------------------------------------------|------------------|--------|
|-2-2-2-2-2-2-2-2-2-2-2-2-2-2-2-2-2-2-2-2-2-2-2-2-|-2-------(2)------|-(2)----|
|-2-2-2-2-2-2-2-2-2-2-2-2-2-2-2-2-2-2-2-2-2-2-2-2-|-2-------(2)------|-(2)----|
|-0-0-0-0-0-0-0-0-0-0-0-0-0-0-0-0-0-0-0-0-0-0-0-0-|-0-------(0)------|-(0)----|


   Interlude
    Q.=100
    Dmaj7/F#      Asus4         Csus2            B5VII
    Gtr III
    E E E E E E   E E E E E E   E  E E  E E  E   E E E E E E
||--------------|-------------|----------------|--------------||
||o-------------|-------------|----------------|-------------o||
||--------------|-------------|----------------|--------------||
||------0-------|-----0-------|------0---------|-----0--------||
||o---4---4---4-|---7---7---7-|---10---10---10-|---9---9---9-o||
||--2-------2---|-5-------5---|-8---------8----|-7-------7----||


    Asus4
    E E E E E E   E E E E E E   E E E E E E
||--------------|-------------|-------------|
||o-------------|-------------|-------------|
||--------------|-------------|-------------|
||----0-----0---|---0-----0---|---0-----0---|
||o-----7-----7-|-----7-----7-|-----7-----7-|
||--5-----5-----|-5-----5-----|-5-----5-----|


  Bm
  E E E E E E   E E E E E E   E E E E E E
|-------------|-------------|--------------|
|-------------|-------------|--------------|
|-------------|-------------|--------------|
|---0-----0---|---0-----0---|---0-----0----|
|-----5-----5-|-----5-----5-|-----5-----5--|
|-7-----7-----|-7-----7-----|-7-----7------|


  G5open
  E E E E E E   E E E E E E   E E E E E E
|-------------|-------------|-------------|
|-------------|-------------|-------------|
|-------------|-------------|-------------|
|---0-----0---|---0-----0---|---0-----0---|
|-----5-----5-|-----5-----5-|-----5-----5-|
|-3-----3-----|-3-----3-----|-3-----3-----|


  Dmaj7/F#
  E E E E E E   E E E E E E   E E E E E E
|-------------|-------------|--------------||
|-------------|-------------|-------------o||
|-------------|-------------|--------------||
|---0-----0---|---0-----0---|---0-----0----||
|-----4-----4-|-----4-----4-|-----4-----4-o||
|-2-----2-----|-2-----2-----|-2-----2------||


  E E E E E E   E E E E E E   E E E E E E
|-------------|-------------|-------------|
|-------------|-------------|-------------|
|-------------|-------------|-------------|
|---0-----0---|---0-----0---|---0-----0---|
|-----4-----4-|-----4-----4-|-----4-----4-|
|-2-----2-----|-2-----2-----|-2-----2-----|


    Q=120
    E5 B5/F#  D5/A      E5 B5/G5F#A5G5  E5 B5/F#  D5/A      E5 B5/G5F#E5F#5
   4/4
    Gtrs I, II
    Q  Q  E E E S  S    Q  Q  E E E E   Q  Q  E E E S  S    Q  Q  E E E E
||--------------------|---------------|-------------------|-----------------||
||o-------------------|---------------|-------------------|----------------o||
||------------7-------|---------------|-----------7-------|-----------------||
||-----4------7-5h=7--|-2--4----------|----4------7-5h=7--|-2--4------------||
||o-2--2------5-5-(5)-|-2--2--5-4-7-5-|-2--2------5-5-(5)-|-2--2--5-4-2-4--o||
||--0--2--7p5-5-------|-0--2--3-2-5-3-|-0--2--7p5-5-------|-0--2--3-2-0-2---||


 Verse
  $
  B5                                                C#5
  S S S S S S S S S S S S S S S S   S S S S S S S S S S S S S S S S
|---------------------------------|---------------------------------|
|---------------------------------|---------------------------------|
|---------------------------------|---------------------------------|
|-4-4-4-4-4-4-4-4-4-4-4-4-4-4-4-4-|-4-4-4-4-4-4-4-4-6-6-6-6-6-6-6-6-|
|-2-2-2-2-2-2-2-2-2-2-2-2-2-2-2-2-|-2-2-2-2-2-2-2-2-4-4-4-4-4-4-4-4-|
|---------------------------------|---------------------------------|


  D5
  S S S S S S S S S S S S S S S S
|------------------------------------|
|------------------------------------|
|------------------------------------|
|-7-7-7-7-7-7-7-7-7-7-7-7-7-7-7-7----|
|-5-5-5-5-5-5-5-5-5-5-5-5-5-5-5-5----|
|------------------------------------|


  C#A5            C#D5              B5
  S S S S S S S S S S S S S S S S   S S S S S S S S S S S S S S S S
|---------------------------------|----------------------------------|
|---------------------------------|----------------------------------|
|---------------------------------|----------------------------------|
|-6-7-7-7-7-7-7-7-6S7-7-7-7-7-7-7-|-4-4-4-4-4-4-4-4-4-4-4-4-4-4-4-4--|
|-4S5-5-5-5-5-5-5-4-5-5-5-5-5-5-5-|-2-2-2-2-2-2-2-2-2-2-2-2-2-2-2-2--|
|---------------------------------|----------------------------------|


                  C#5               D5
  S S S S S S S S S S S S S S S S   S S S S S S S S S S S S S S S S
|---------------------------------|----------------------------------|
|---------------------------------|----------------------------------|
|---------------------------------|----------------------------------|
|-4-4-4-4-4-4-4-4-6-6-6-6-6-6-6-6-|-7-7-7-7-7-7-7-7-7-7-7-7-7-7-7-7--|
|-2-2-2-2-2-2-2-2-4-4-4-4-4-4-4-4-|-5-5-5-5-5-5-5-5-5-5-5-5-5-5-5-5--|
|---------------------------------|----------------------------------|


  C#D5            C#D5                G#5
                                      Gtr I
  S S S S S S S S S S S S S S S S     S S S S S S S S S S S S S S S S
|---------------------------------||----------------------------------|
|---------------------------------||o---------------------------------|
|---------------------------------||----------------------------------|
|-6-7-7-7-7-7-7-7-6S7-7-7-7-7-7-7-||----------------------------------|
|-4S5-5-5-5-5-5-5-4-5-5-5-5-5-5-5-||o-6-6-6-6-6-6-6-6-6-6-6-6-6-6-6-6-|
|---------------------------------||--4-4-4-4-4-4-4-4-4-4-4-4-4-4-4-4-|
|
|                                     Gtr II
| W                                   S S S S S S S S S S S S S S S S
|---------------------------------||----------------------------------|
|---------------------------------||o---------------------------------|
|---------------------------------||----------------------------------|
|---------------------------------||----------------------------------|
|---------------------------------||o-6-6-6-6-6-6-6-6-6-6-6-6-6-6-6-6-|
|---------------------------------||--4-4-4-4-4-4-4-4-4-4-4-4-4-4-4-4-|


  S S S S S S S S S S S S S S S S
|-------------------------------------||
|------------------------------------o||
|-------------------------------------||
|-------------------------------------||
|-6-6-6-6-6-6-6-6-6-6-6-6-6-6-6-6----o||
|-4-4-4-4-4-4-4-4-4-4-4-4-4-4-4-4-----||
|
| S S S S S S S S S S S S S S S S
|-------------------------------------||
|------------------------------------o||
|-------------------------------------||
|-------------------------------------||
|-6-6-6-6-6-6-6-6-4h5h7p5p4p0-6-6----o||
|-4-4-4-4-4-4-4-4-------------4-4-----||


  B5        C5             D5        G5 A5
 12/8
  E S S S S  E  S  S  S  S E S S S S E. E.
|------------------------------------------|
|------------------------------------------|
|------------------------------------------|
|-9-9-9-9-9-10-10-10-10-10-7-7-7-7-7-5--7--|
|-9-9-9-9-9-10-10-10-10-10-7-7-7-7-7-5--7--|
|-7-7-7-7-7--8--8--8--8--8-5-5-5-5-5-3--5--|


  B5
  E S S S S E S S S S E S S S S E S S S S
|------------------------------------------|
|------------------------------------------|
|------------------------------------------|
|-9-9-9-9-9-9-9-9-9-9-9-9-9-9-9-9-9-9-9-9--|
|-9-9-9-9-9-9-9-9-9-9-9-9-9-9-9-9-9-9-9-9--|
|-7-7-7-7-7-7-7-7-7-7-7-7-7-7-7-7-7-7-7-7--|


   Chorus
    C#5                 C#suC#5 C#suC#5
    E S S S S E S S S S E E S S E E S S
||--------------------------------------|
||o-------------------------------------|
||--6---------6---------8-8-----8-8-----|
||--6-6-6-6-6-6-6-6-6-6-6-6-6-6-6-6-6-6-|
||o-4-4-4-4-4-4-4-4-4-4-4-4-4-4-4-4-4-4-|
||--------------------------------------|


  A5                  F#m/A       A     Ab/A
  E S S S S E S S S S S S S S S S S S S S S S
|----------------------------------------------|
|----------------------------------------------|
|-2---------2----------------------------------|
|-2-2-2-2-2-2-2-2-2-2-4-4-4-4-4-4-7-7-7-6-6-6--|
|-0-0-0-0-0-0-0-0-0-0-0-0-0-0-0-0-0-0-0-0-0-0--|
|----------------------------------------------|


  C#5                 C#suC#5 C#suC#5
  E S S S S E S S S S E E S S E E S S
|-------------------------------------|
|-------------------------------------|
|-6---------6---------8-8-----8-8-----|
|-6-6-6-6-6-6-6-6-6-6-6-6-6-6-6-6-6-6-|
|-4-4-4-4-4-4-4-4-4-4-4-4-4-4-4-4-4-4-|
|-------------------------------------|


  A5                  F#m/A       A5    Eb/A
  E S S S S E S S S S S S S S S S S S S S S S    4x
|------------------------------------------------||
|-----------------------------------------------o||
|-2---------2------------------------------------||
|-2-2-2-2-2-2-2-2-2-2-4-4-4-4-4-4-2-2-2-1-1-1----||
|-0-0-0-0-0-0-0-0-0-0-0-0-0-0-0-0-0-0-0-0-0-0---o||
|------------------------------------------------||


 Out-Chorus
  C#5                 C#suC#5 C#suC#5
  E S S S S E S S S S E E S S E E S S
|-------------------------------------|
|-------------------------------------|
|-6---------6---------8-8-----8-8-----|
|-6-6-6-6-6-6-6-6-6-6-6-6-6-6-6-6-6-6-|
|-4-4-4-4-4-4-4-4-4-4-4-4-4-4-4-4-4-4-|
|-------------------------------------|


  A5                  F#m/A       A     Ab/A
  E S S S S E S S S S S S S S S S S S S S S S
|-----------------------------------------------|
|-----------------------------------------------|
|-2---------2-----------------------------------|
|-2-2-2-2-2-2-2-2-2-2-4-4-4-4-4-4-7-7-7-6-6-6---|
|-0-0-0-0-0-0-0-0-0-0-0-0-0-0-0-0-0-0-0-0-0-0---|
|-----------------------------------------------|


  C#5                 C#suC#5 C#suC#5
  E S S S S E S S S S E E S S E E S S
|-------------------------------------|
|-------------------------------------|
|-6---------6---------8-8-----8-8-----|
|-6-6-6-6-6-6-6-6-6-6-6-6-6-6-6-6-6-6-|
|-4-4-4-4-4-4-4-4-4-4-4-4-4-4-4-4-4-4-|
|-------------------------------------|


  A5                  F#m/A       A5    Eb/A
  E S S S S E S S S S S S S S S S S S S S S S
|-----------------------------------------------*|
|-----------------------------------------------*|
|-2---------2-----------------------------------*|
|-2-2-2-2-2-2-2-2-2-2-4-4-4-4-4-4-2-2-2-1-1-1---*|
|-0-0-0-0-0-0-0-0-0-0-0-0-0-0-0-0-0-0-0-0-0-0---*|
|-----------------------------------------------*|



Duration Legend
---------------
W - whole; H - half; Q - quarter; E - 8th; S - 16th; T - 32nd; X - 64th; a - acciaccatura
+ - note tied to previous; . - note dotted; .. - note double dotted
Uncapitalized letters represent notes that are staccato (1/2 duration)
Irregular groupings are notated above the duration line
Duration letters will always appear directly above the note/fret number it represents the
duration for.  Duration letters with no fret number below them represent rests.  Multi-
bar rests are notated in the form Wxn, where n is the number of bars to rest for.  Low
melody durations appear below the staff

Tablature Legend
----------------
 h   - hammer-on
 p   - pull-off
 b   - bend
 pb  - pre-bend
 r   - bend release (if no number after the r, then release immediately)
 /\  - slide into or out of (from/to "nowhere")
 s   - legato slide
 S   - shift slide
 - natural harmonic
[n]  - artificial harmonic
n(n) - tapped harmonic
 ~   - vibrato
 tr  - trill
 T   - tap
 TP  - trem. picking
 PM  - palm muting
\n/  - tremolo bar dip; n = amount to dip
 \n  - tremolo bar down
 n/  - tremolo bar up
/n\  - tremolo bar inverted dip
 =   - hold bend; also acts as connecting device for hammers/pulls
 <> - volume swell (louder/softer)
 x   - on rhythm slash represents muted slash
 o   - on rhythm slash represents single note slash

Misc Legend
-----------
 |  - bar
||  - double bar
||o - repeat start
o|| - repeat end
*|  - double bar (ending)
 :  - bar (freetime)
 $  - Segno
 &  - Coda
Tempo markers -  = BPM(8/16=s8/s16), where s8 = swing 8ths, s16 = swing 16ths

Добавлено: 07.03.2012
Другие материалы по этой песне:

Страница создана 04.03.2012
http://primanota.ru/ancient/the-call-of-the-absu-deep-chords.htm
Привет, Гость.
Предлагаем пройти революционный курс по гитаре.
Подарок от PrimaNota.Ru, забирай!