PrimaNota.ru - самый крупный в мире бесплатный архив песенных текстов, аккордов, табулатур и нот


Ancient - God Loves The Dead - таба, видео

Регистрация Запомнить меня
Войти через:  Facebook Google Twitter Vk Yandex Mail.ru

Ancient - God Loves The Dead - таба, видео

Печатать
Просмотров: 274
Уроки эстрадного вокала в Санкт-Петербурге
-------------------------------------------------------------------------------
			     GOD LOVES THE DEAD - Ancient
-------------------------------------------------------------------------------
Tabbed by:	Sickgod
Email:		rmehalwal@gmail.com

Tuning:	E A D G B E [Standard Tuning]

e|---------------------------------------------------------------------------|
B|---------------------------------------------------------------------------|
G|---------------------------------------------------------------------------|	INTRO
D|---8-7---8-7---8-7---8-7----//---------------------------------------------|
A|---8-7---8-7---8-7---8-7----// Pick Scrape---------------------------------|
E|---6-5---6-5---6-5---6-5----//---------------------------------------------|

e|---------------------------------------------------------------------------|
B|---------------------------------------------------------------------------|
G|---------------------------------------------------------------------------|	MAIN RIFF
D|---8--7------------------------8--7----------------------------------------|
A|---8--7--7--7--7--7-7-7-7-7-7--8--7--7--7--7--7--7-------------------------|
E|---6--5--5--5--5--5-5-5-5-5-5--6--5--5--5--5--5--5-------------------------|

e|---------------------------------------------------------------------------|
B|---------------------------------------------------------------------------|
G|---------------------------------------------------------------------------|	RIFF 1
D|---7----10----8----12----7----8----7----5----------------------------------|
A|---7----10----8----12----7----8----7----5----------------------------------|
E|---5----8-----6----10----5----6----5----3----------------------------------|

e|---------------------------------------------------------------------------|
B|---------------------------------------------------------------------------|
G|---------------------------------------------------------------------------|
D|---------------------------------------------------------------------------|
A|---------------------------------------------------------------------------|
E|--6-5-5-5-5-5-5-6p5-5-8p5-5-6p5--------------------------------------------|	RIFF 2

e|------------------------------------------------------------------------------|
B|------------------------------------------------------------------------------|
G|------------------------------------------------------------------------------|    _
D|---------------------------------------------------------------------------| -|
A|--7--------------------------------3---------------------------------------| -|
E|--5-5-5-5-5-5-5-5-5-5-5-5-5-5-5-5--1-1-1-1-1-1-1-1-1-1-1-1-1-1-1-1---------| -|
										 | RIFF 3
e|---------------------------------------------------------------------------|    ---|
B|---------------------------------------------------------------------------|    ---|
G|---------------------------------------------------------------------------|    ---|
D|---------------------------------------------------------------------------|    ---|
A|--7--------------------------------5-----------------------------------------------|
E|--5-5-5-5-5-5-5-5-5-5-5-5-5-5-5-5--3-3-3-3-3-3-3-3-3-3-3-3-3-3-3-3-----------------|

e|-------------------------------------------------------------------------------------------------------|
B|-------------------------------------------------------------------------------------------------------|
G|-------------------------------------------------------------------------------------------------------|

4
A|--4--------------------------------7-----------9-------10-------7-----------9-------10-----------------|
E|--2-2-2-2-2-2-2-2-2-2-2-2-2-2-2-2--5-5-5-5-5-5-7-7-7-7-8--8-8-8-5-5-5-5-5-5-7-7-7-7-8--8-8-8-----------|

e|------------------------------------------------------------------------------|
B|------------------------------------------------------------------------------|
G|------------------------------------------------------------------------------|
D|------------------------------------------------------------------------------|
A|--10--------------------------------8-----------------------------------------|    _
E|--8--8-8-8-8-8-8-8-8-8-8-8-8-8-8-8--6-6-6-6-6-6-6-6-6-6-6-6-6-6-6-6--------| -|
										 | RIFF 5
e|---------------------------------------------------------------------------|  ---|
B|---------------------------------------------------------------------------|  ---|
G|---------------------------------------------------------------------------------|
D|---------------------------------------------------------------------------------|
A|--10--------------------------------8-------------7------------------------------|
E|--8--8-8-8-8-8-8-8-8-8-8-8-8-8-8-8--6-6-6-6-6-6-6-5-5-5-5-5-5-5-5----------------|

e|------------------------------------------------------------------------------|
B|------------------------------------------------------------------------------|
G|----------9-9-9-9-10-10-10-10---------9-9-9-9-10-10-10-10---------------------|
D|--8-8-8-8---------------------8-8-8-8-----------------------------------------|    _
A|---------------------------------------------------------------------------| -|
E|---------------------------------------------------------------------------| -|
										 |
e|---------------------------------------------------------------------------|	 |
B|---------------------------------------------------------------------------|	 |
G|----------9-9-9-9-10-10-10-10----------------------------------------------|	 |
D|--7-7-7-7---------------------8-8-8-8-5-5-5-5-7-7-7-7----------------------|	 |
A|---------------------------------------------------------------------------|	 |
E|---------------------------------------------------------------------------|	 |
										 | RIFF 6
e|---------------------------------------------------------------------------|	 |
B|---------------------------------------------------------------------------|	 |
G|----------9-9-9-9-10-10-10-10----------------------------------------------|	 |
D|--8-8-8-8---------------------8-8-8-8-5-5-5-5-7-7-7-7----------------------|	 |
A|---------------------------------------------------------------------------|	 |
E|---------------------------------------------------------------------------|	 |
										 |
e|---------------------------------------------------------------------------|    ---|
B|---------------------------------------------------------------------------|    ---|
G|----------9-9-9-9-10-10-10-10----------------------------------------------|    ---|
D|--8-8-8-8---------------------8-8-8-8-5-5-5-5-7-7-7-7------------------------------|
A|-----------------------------------------------------------------------------------|
E|-----------------------------------------------------------------------------------|


SEQUENCE:

		INTRO		X	1
		MAIN RIFF	X	2
		RIFF 1		X	1
		MAIN RIFF	X	4
		RIFF 1		X	2
		RIFF 2		X	7
		RIFF 3		X	2
		MAIN RIFF	X	4
		RIFF 1		X	2
		RIFF 4		X	2
		RIFF 5		X	1
		MAIN RIFF	X	2
		RIFF 1		X	8
		RIFF 3		X	2
		RIFF 6		X	1
		MAIN RIFF	X	4

	Would be updating it pretty soon!!! Will add up the keyboard parts.....

===============================================================================
| /  slide up
| \  slide down
| h  hammer-on
| p  pull-off
| ~  vibrato
| +  harmonic
| x  Mute note
===============================================================================
Добавлено: 09.06.2012
Другие материалы по этой песне:
  • Аккорды и текст

Страница создана 09.06.2012
http://primanota.ru/ancient/god-loves-the-dead-chords.htm
Привет, Гость.
Предлагаем пройти революционный курс по гитаре.
Подарок от PrimaNota.Ru, забирай!