PrimaNota.ru - самый крупный в мире бесплатный архив песенных текстов, аккордов, табулатур и нот


Ancient Rites - Invictus - текст песни, таба, видео

Регистрация Запомнить меня
Войти через:  Facebook Google Twitter Vk Yandex Mail.ru

Ancient Rites - Invictus - текст песни, таба, видео

Печатать
Просмотров: 164
Уроки эстрадного вокала в Санкт-Петербурге
Band:  ANCIENT RITES
Album: RVBICON
Song:  INVICTUS

Copyright (c)  SEASONS OF MIST 2006
Version 1.0 - 20009-08-14

Transcribed By: SMETSAR
Email:          SMETSAR@HOTMAIL.COM


.  - palm mute           /  - slide up to
\  - slide down to       ~  - vibrato
h  - hammer on           b  - Bend
p  - pull off            Suffixes for bend
t  - tap                 f  - full bend    h - half bend
ph - pinched harmonic    q  - quarter bend t - tap bend
*  - see comment         ^  - Hold bend    r release bend
x  - Stuccatto           ~  - vibrato bend
,  - slight palm mute    () - ghost note, sustained note
"  - tremolo note        <> - Trill

Okay, the songs from the Rvbicon are hard to tab, due to
the loud orchestral parts. But I think the lead guitar is
pretty correct, except for the solo. There are surely some
mistakes in the solo, but it's better than nothing I guess.

RIFF 1: X2
Lead Guitar:
e| --------------------------------------------------------|
B| --------------------------------------------------------|
G| --------------------------------------------------------|
D| --------12-9-11-7-9-6-7-6----------12-9-11-7-9-6-7-6----|
A| -9--9------------------------9--9-----------------------|
E| --------------------------------------------------------|

e| --------------------------------------------------------|
B| --------------------------------------------------------|
G| -------------6-7-6--------------7--9--11----------------|
D| -------6-7-9-------9-7----9--9--------------------------|
A| -7--7---------------------------------------------------|
E| --------------------------------------------------------|

Rhytm Guitar:
e| --------------------------------------------------------|
B| --------------------------------------------------------|
G| --------------------------------------------------------|
D| -4--4--------------------------4--4---------------------|
A| -4--4--------------------------4--4---------------------|
E| -2--2--------------------------2--2---------------------|

e| --------------------------------------------------------|
B| --------------------------------------------------------|
G| --------------------------------------------------------|
D| -2--2----------------------4--4--7--9--11---------------|
A| -2--2----------------------2--2--5--7--9----------------|
E| -0--0---------------------------------------------------|

FILL 1:
Both guitars:
e| --------------------------------------------------------|
B| --------------------------------------------------------|
G| --------------------------------------------------------|
D| -4--4---------------------------------------------------|
A| -4--4----------------------12\--------------------------|
E| -2--2----------------------12\--------------------------|

RIFF 2: X2
Lead Guitar:
e| --------------------------------------------------------|
B| --------------------------------------------------------|
G| -11-9--------------------------9-------9----------------|
D| ------12-11-12-11-9----9-11-12---11-12------------------|
A| --------------------12----------------------------------|
E| --------------------------------------------------------|

e| --------------------------------------------------------|
B| --------------------------------------------------------|
G| -11-9--------------------------9------------------------|
D| ------12-11-12-11-9----9-11-12---11---------------------|
A| --------------------12----------------------------------|
E| --------------------------------------------------------|

e| --------------------------------------------------------|
B| --------------------------------------------------------|
G| -11-9--------------------------9-------9----------------|
D| ------12-11-12-11-9----9-11-12---11-12------------------|
A| --------------------12----------------------------------|
E| --------------------------------------------------------|

e| --------------------------------------------------------|
B| --------------------------------------------------------|
G| -11-9-----------------------13-14-13--------------------|
D| ------12-11-12-11-9----9-11-----------------------------|
A| --------------------12----------------------------------|
E| --------------------------------------------------------|

Rhytm Guitar:
e| --------------------------------------------------------|
B| --------------------------------------------------------|
G| --------------------------------------------------------|
D| --------------------------------------------------------|
A| ------4444-2222-4444-------4444-2222-4------------------|
E| -2222-----------------2222------------------------------|

RIFF 3: (with tremolo picking)
Lead Guitar:
e| --------------------------------------------------------|
B| --------------------------------------------------------|
G| --------------------------------------------------------|
D| ----11--12-11-9-11-----9----------------6-9-6---6-7-6---|
A| -9------------------9-----12-11-9-11--7-------7---------|
E| --------------------------------------------------------|

e| --------------------------------------------------------|
B| --------------------------------------------------------|
G| --------------------------------------------------------|
D| ----11--12-11-9-11-----9----------------6-9-6---7-6-----|
A| -9------------------9-----12-11-9-11--7-------7-----7---|
E| --------------------------------------------------------|

e| --------------------------------------------------------|
B| --------------------------------------------------------|
G| --------------------------------------------------------|
D| ----11--12-11-9-11-----9----------------6-9-6---6-7-6---|
A| -9------------------9-----12-11-9-11--7-------7---------|
E| --------------------------------------------------------|

e| --------------------------------------------------------|
B| --------------------------------------------------------|
G| --------------------------------------------------------|
D| ----11--12-11-9-11-----9----------------6-9-6---7-6-----|
A| -9------------------9-----12-11-9-11--7-------7-----7---|
E| --------------------------------------------------------|

Rhytm Guitar:
e| --------------------------------------------------------|
B| --------------------------------------------------------|
G| --------------------------------------------------------|
D| -4------------------------------------------------------|
A| -4------------------------------------------------------|
E| -2------------------------------------------------------|

e| --------------------------------------------------------|
B| --------------------------------------------------------|
G| --------------------------------------------------------|
D| --------------------------------------------------------|
A| ----4--5-4-2-4-----2------------------------------------|
E| -2--------------2-----5-4-2-4--0-4-7-4-0-5-4-0----------|

e| --------------------------------------------------------|
B| --------------------------------------------------------|
G| --------------------------------------------------------|
D| --------------------------------------------------------|
A| ----4--5-4-2-4-----2------------------------------------|
E| -2--------------2-----5-4-2-4--0-4-7-4-0-4-5-0----------|

e| --------------------------------------------------------|
B| --------------------------------------------------------|
G| --------------------------------------------------------|
D| --------------------------------------------------------|
A| ----4--5-4-2-4-----2------------------------------------|
E| -2--------------2-----5-4-2-4--0-4-7-4-0-5-4-0----------|

RIFF 4: X2
Lead Guitar:
e| --------------------------------------------------------|
B| ------------------12-10-9--14-10-12-9-10-7-9------------|
G| -11--11--11-9-11-----------------------------9----------|
D| --------------------------------------------------------|
A| --------------------------------------------------------|
E| --------------------------------------------------------|

e| --------------------------------------------------------|
B| ------------------14-12-10-12-10-9-10-9-7-9-------------|
G| -11--11--11-9-11----------------------------9-----------|
D| --------------------------------------------------------|
A| --------------------------------------------------------|
E| --------------------------------------------------------|

Rhytm Guitar:
e| --------------------------------------------------------|
B| --------------------------------------------------------|
G| --------------------------------------------------------|
D| -4--4--4--2-4--4--4--6--7-6-----------------------------|
A| -4--4--4--2-4--2--2--4--7-6-----------------------------|
E| -2--2--2--0-2-----------5-4-----------------------------|

e| --------------------------------------------------------|
B| --------------------------------------------------------|
G| --------------------------------------------------------|
D| -4--4--4--2-4--4--4--7--9-11----------------------------|
A| -4--4--4--2-4--2--2--5--7-9-----------------------------|
E| -2--2--2--0-2-------------------------------------------|

RIFF 5: X2
Both guitars:
e| --------------------------------------------------------|
B| --------------------------------------------------------|
G| --------------------------------------------------------|
D| ---------2----------4----------2------------------------|
A| ---------0----------2----------0----------5-4-2---------|
E| -222-222----222-222----222-222----222-222---------------|
    ... ...    ... ...    ... ...    ... ... . . .
e| --------------------------------------------------------|
B| --------------------------------------------------------|
G| --------------------------------------------------------|
D| ---------2----------4----------2----------7-6-----------|
A| ---------0----------2----------0----------7-6-----------|
E| -222-222----222-222----222-222----222-222-5-4-----------|
    ... ...    ... ...    ... ...    ... ...

RIFF 6:
Both guitars:
e| --------------------------------------------------------|
B| --------------------------------------------------------|
G| --------------------------------------------------------|
D| -----------------------------6-7------------------------|
A| -4-------4-------7-4-----4---4-5------------------------|
E| -2-2-2-2-2-2-2-2-5-2-2-2-2-2----------------------------|
      . . .   . . .     . .   .
e| --------------------------------------------------------|
B| --------------------------------------------------------|
G| --------------------------------------------------------|
D| -4-------4-------2--------------------------------------|
A| -2-2-2-2-2-2-2-2-0-0-0-0-6--2---------------------------|
E| -------------------------4--0---------------------------|
      . . .   . . .   . . .
e| --------------------------------------------------------|
B| --------------------------------------------------------|
G| --------------------------------------------------------|
D| -----------------------------6-7------------------------|
A| -4-------4-------7-4-----4---4-5------------------------|
E| -2-2-2-2-2-2-2-2-5-2-2-2-2-2----------------------------|
      . . .   . . .     . .   .
e| --------------------------------------------------------|
B| --------------------------------------------------------|
G| --------------------------------------------------------|
D| -4-------4-------2-------6--7--2----4-------------------|
A| -2-2-2-2-2-2-2-2-0-0-0-0-4--5--2----4-------------------|
E| -------------------------------0----2-------------------|
      . . .   . . .   . . .

RIFF 3A:
Lead Guitar:
e| --------------------------------------------------------|
B| --------------------------------------------------------|
G| --------------------------------------------------------|
D| ----11--12-11-9-11-----9----------------6-9-6---6-7-6---|
A| -9------------------9-----12-11-9-11--7-------7---------|
E| --------------------------------------------------------|

e| --------------------------------------------------------|
B| --------------------------------------------------------|
G| --------------------------------------------------------|
D| ----11--12-11-9-11-----9----------------6-9-6---7-6-----|
A| -9------------------9-----12-11-9-11--7-------7-----7---|
E| --------------------------------------------------------|

e| --------------------------------------------------------|
B| --------------------------------------------------------|
G| --------------------------------------------------------|
D| ----11--12-11-9-11-----9----------------6-9-6---6-7-6---|
A| -9------------------9-----12-11-9-11--7-------7---------|
E| --------------------------------------------------------|

e| --------------------------------------------------------|
B| --------------------------------------------------------|
G| --------------------------------------------------------|
D| ----11--12-11-9-11-----9----------------6-9-6---7-6-----|
A| -9------------------9-----12-11-9-11--7-------7-----7---|
E| --------------------------------------------------------|

Rhytm Guitar:
e| --------------------------------------------------------|
B| --------------------------------------------------------|
G| --------------------------------------------------------|
D| --------------------------------------------------------|
A| ----4--5-4-2-4-----2------------------------------------|
E| -2--------------2-----5-4-2-4--0-4-7-4-0-4-5-0----------|

e| --------------------------------------------------------|
B| --------------------------------------------------------|
G| --------------------------------------------------------|
D| --------------------------------------------------------|
A| ----4--5-4-2-4-----2------------------------------------|
E| -2--------------2-----5-4-2-4--0-4-7-4-0-5-4-0----------|

e| --------------------------------------------------------|
B| --------------------------------------------------------|
G| --------------------------------------------------------|
D| --------------------------------------------------------|
A| ----4--5-4-2-4-----2------------------------------------|
E| -2--------------2-----5-4-2-4--0-4-7-4-0-4-5-0----------|

e| --------------------------------------------------------|
B| --------------------------------------------------------|
G| --------------------------------------------------------|
D| --------------------------------------------------------|
A| ----4--5-4-2-4-----2------------------------------------|
E| -2--------------2-----5-4-2-4--0-4-7-4-0-5-4-0----------|

RIFF 5: X2

FILL 2:
Both guitars:
e| --------------------------------------------------------|
B| --------------------------------------------------------|
G| --------------------------------------------------------|
D| -4------------------------------------------------------|
A| -4------------------------------------------------------|
E| -2------------------------------------------------------|

RIFF 7: X4
Both guitars:
e| --------------------------------------------------------|
B| --------------------------------------------------------|
G| --------------------------------------------------------|
D| ---------------4-----2------------------7-----9-11------|
A| ---------2-----2-2-2-0-6----------2-----5-5-5-7-9-------|
E| -2-2-2-2-0-0-0---------4--2-2-2-2-0-0-0-----------------|
    . . . .   . .   . .      . . . .   . .   . .

SOLO: This is not perfect, but it's not a disaster
Lead Guitar:
e| --------------------------------------------------------|
B| --------------------15--14-12-----10-12-----------------|
G| -11--9-11-13--11-13-----------13------------------------|
D| --------------------------------------------------------|
A| --------------------------------------------------------|
E| --------------------------------------------------------|

e| -14--------16--------19b--19-17-16----------------------|
B| -----14--------17---------------------------------------|
G| --------14--------16------------------------------------|
D| --------------------------------------------------------|
A| --------------------------------------------------------|
E| --------------------------------------------------------|

e| ---------14----12---------------------------------------|
B| -12b-12b----14----14-12-14-11b-11b-10-12-9--------------|
G| --------------------------------------------------------|
D| --------------------------------------------------------|
A| --------------------------------------------------------|
E| --------------------------------------------------------|

e| --------------------------------------------------------|
B| -7-9-10--9--7br-7-5-7-----------------------------------|
G| --------------------------------------------------------|
D| --------------------------------------------------------|
A| --------------------------------------------------------|
E| --------------------------------------------------------|

e| ---------14----12-------14-12----12-12b-12--------------|
B| -12b-12b----14----14-12-------14------------------------|
G| --------------------------------------------------------|
D| --------------------------------------------------------|
A| --------------------------------------------------------|
E| --------------------------------------------------------|

e| -12br----------------12-12br----------------------------|
B| ------14-12-14-12-14---------14-12-14-------------------|
G| --------------------------------------------------------|
D| --------------------------------------------------------|
A| --------------------------------------------------------|
E| --------------------------------------------------------|

e| ---------14----12-------14-12----12-12b-12--------------|
B| -12b-12b----14----14-12-------14------------------------|
G| --------------------------------------------------------|
D| --------------------------------------------------------|
A| --------------------------------------------------------|
E| --------------------------------------------------------|

e| --------------------------------------------------------|
B| -0h12-0h10-0h9-0h10-0h9-0h7-0h9-0h5-0h7-0h9-0h10-5-7----|
G| --------------------------------------------------------|
D| --------------------------------------------------------|
A| --------------------------------------------------------|
E| --------------------------------------------------------|

e| ---------14----12----17----12----12-12b-12--------------|
B| -12b-12b----12----14----14----14------------------------|
G| --------------------------------------------------------|
D| --------------------------------------------------------|
A| --------------------------------------------------------|
E| --------------------------------------------------------|

e| -21p19p17-21p19p17-19p17p16-19p17p16--------------------|
B| --------------------------------------------------------|
G| --------------------------------------------------------|
D| --------------------------------------------------------|
A| --------------------------------------------------------|
E| --------------------------------------------------------|

e| -17p15p14-17p15p14-16p14p12-16p14p12--------------------|
B| --------------------------------------------------------|
G| --------------------------------------------------------|
D| --------------------------------------------------------|
A| --------------------------------------------------------|
E| --------------------------------------------------------|

RIFF 1: X2

RIFF 6

RIFF 3A

RIFF 5: X2

FILL 2

The end! Enjoy!
Добавлено: 10.04.2012
Другие материалы по этой песне:
  • Аккорды и текст

Страница создана 10.04.2012
http://primanota.ru/ancient-rites/invictus-chords.htm
Привет, Гость.
Предлагаем пройти революционный курс по гитаре.
Подарок от PrimaNota.Ru, забирай!