PrimaNota.ru - самый крупный в мире бесплатный архив песенных текстов, аккордов, табулатур и нот


Ancient Rites - Crucifixion Justified - таба, видео

Регистрация Запомнить меня
Войти через:  Facebook Google Twitter Vk Yandex Mail.ru

Ancient Rites - Crucifixion Justified - таба, видео

Печатать
Просмотров: 149
Уроки эстрадного вокала в Санкт-Петербурге
----------------------------------------------------------------------------
                             CRUCIFIXITION JUSTIFIED - Ancient Rites
----------------------------------------------------------------------------
Tabbed by: Benjamin Gheysels
Date: 2003-03-11
Album: The Diabolic serenades

Tuning: standard tuning

| h  hammer-on
| p  pull-off
| ~  vibrato
| b  bend
| .  mute note
| ps pick scrape


Riff 1: play 3 times
e|--------------------------------------------------|
B|--------------------------------------------------|
G|--------------------------------------------------|
D|---------------------------------------3-3-3-3----|
A|--3-------4----3-------4---3-------4---1-1-1-1----|
E|--1-1-1-1-2----1-1-1-1-2---1-1-1-1-2--------------|


Riff 2: play 2 times
e|--------------------------------------------------|
B|--------------------------------------------------|
G|--------------------------------------------------|
D|----------------------------------------8-8-8-8---|
A|--8-------9----8-------9----8-------9---6-6-6-6---|
E|--6-6-6-6-7----6-6-6-6-7----6-6-6-6-7-------------|


Riff 1: play 2 times


then this little lead:
e|-----------------------------|
B|-----------------------------|
G|---5-5-----------------------|
D|--------5-5------------------|
A|-------------5-5-------------|
E|------------------5-5--------|


Riff 3: play 3 times
e|----------------------------------------|
B|----------------------------------------|
G|----------------------------------------|
D|---2--2--2---------2--2--2--------------|
A|---2--2--2---------2--2--2--------------|
E|---0--0--0--1-0-1--0--0--0--1-0-1-3-----|


Riff 4: play 4 times
e|--------------------|
B|--------------------|
G|--------------------|
D|---2----2--2--------|
A|---2----2--2--------|
E|---0--1p0--0--------|


Riff 5 (verse riff): play 3 times
e|----------------------------------------------|
B|----------------------------------------------|
G|----------------------------------------------|
D|----------------------------------------------|
A|--2-2-2-2-3-2-2-2-2-3-2-2-2-------------------|
E|----------------------------0h1--0h1--0h1-----|


Riff 6: play 4 times
e|------------------------------------------|
B|------------------------------------------|
G|----------------------------------4-------|
D|---2-------4----------2-------4---2-------|
A|---2---5---2---5------2---5---2-----------|
E|---0---3-------3------0---3---------------|


Riff 4: play 3 times


Riff 5: play 3 times


Riff 7: play 9 times
e|-------------------------------|
B|-------------------------------|
G|------------------------2h4----|
D|---2----------2----------------|
A|---2----------2----------------|
E|---0----1p0---0---1p0----------|


Riff 8: play 4 times
e|------------------------------------|
B|------------------------------------|
G|------------------------------------|
D|---------------2--------------------|
A|---2-2-3---2-2-----2-2-3------------|
E|---------------------------1-1------|


Riff 6: play 4 times


Riff 8: play 4 times


Riff 6: play 4 times


Solo: play Riff 9 as background during solo
e|-----------------------------------------------------------|
B|---8h10--8h10--8h10--8h10----10h11--10h11--10h11--10h11----|
G|-----------------------------------------------------------|
D|-----------------------------------------------------------|
A|-----------------------------------------------------------|
E|-----------------------------------------------------------|

(now simply repeat the above part once, after that, play the part below twice)

e|------------------------------------------------------------------|
B|---10h12--10h12--10h12--10h12----12h13--12h13--12h13--12h13--13b--|
G|------------------------------------------------------------------|
D|------------------------------------------------------------------|
A|------------------------------------------------------------------|
E|------------------------------------------------------------------|


Riff 9: this is the background for the solo. Play this twice
e|-----------------------------------------------|
B|-----------------------------------------------|
G|-----------------------------------------------|
D|---5----3----5----3-----7----5----7----5-------|
A|---3----1----3----1-----5----3----5----3-------|
E|-----------------------------------------------|


Riff 9: play once


Riff 10:
e|---------------------------------------------|
B|---------------------------------------------|
G|---------------------------------------------|
D|---------------------------------------------|
A|---5----3----5----3------7----5----7----5----|
E|---3----1----3----1------5----3----5----3----|


Riff 11: play this twice (note between brackets only the first time)
e|------------------------------------------|
B|------------------------------------------|
G|------------------------------------------|
D|------------------------------------------|
A|------------------------------------------|
E|---0-3-0-0-0-3-0-0-0-3-0-0-0-0-0-(3)------|


Riff 12: play this twice (not sure about this bit!)
e|----------------------------------------------------------------------|
B|----------------------------------------------------------------------|
G|----------------------------------------------------------------------|
D|-----------------1-----------------------------------1----------------|
A|---0-0-0-1-0-0-0---0-0-0-1-0-3-1-------0-0-0-1-0-0-0---0-0-0-1-0-3-1--|
E|----------------------------------------------------------------------|

e|--------------------------------------------------------------------------|
B|--------------------------------------------------------------------------|
G|--------------------------------------------------------------------------|
D|--------------------------------------------------------------------------|
A|---------------1---------------0-0-0----------------1---------------0-0-0-|
E|-0-0-0-1-0-0-0---0-0-0-1-0-3-1--------0-0-0-1-0-0-0---0-0-0-1-0-3-1-------|


Riff 13: play this twice
e|----------------------------------------------------|
B|----------------------------------------------------|
G|----------------------------------------------------|
D|----2----------2----------2----------2--------------|
A|----2----------2----------2----------2--------------|
E|--3-0-0-0----3-0-0-0----3-0-0-0------0-0-0-0-0-0----|


That's it! Enjoy!


============================================================================

============================================================================
Добавлено: 19.06.2012
Вам также может быть интересно:
Другие материалы по этой песне:
  • Аккорды и текст

Страница создана 19.06.2012
http://primanota.ru/ancient-rites/crucifixion-justified-chords.htm
Привет, Гость.
Предлагаем пройти революционный курс по гитаре.
Подарок от PrimaNota.Ru, забирай!