PrimaNota.ru - самый крупный в мире бесплатный архив песенных текстов, аккордов, табулатур и нот


Anberlin - Reclusion - текст песни, таба, бас-таба, видео

Регистрация Запомнить меня
Войти через:  Facebook Google Twitter Vk Yandex Mail.ru

Anberlin - Reclusion - текст песни, таба, бас-таба, видео

Печатать
Просмотров: 242
-------------------------------------------------------------------------------
                             RECLUSION - Anberlin
-------------------------------------------------------------------------------
Tabbed by: RLaunch
Email: launch_rocket@yahoo.com

Tuning: Drop D

INTRO
VERSE 1
CHORUS
VERSE 2
CHORUS
SOLO
INTERLUDE
CHORUS
OUTRO

| h  hammer-on
| ~  hold note
| X  Mute note

If you have any comments or suggestions about my tab, please feel free to PM me or 
me. ;) Comments are always welcome!!

::::UPDATED::::

THE INTRO RIFF HAS BEEN FIXED! THANKS TO WINDEXMAN FOR ALL THE HELP! =)





INTRO

  Gtr. 1
e|----------------------------------------------------------------------------------------|
B|----------------------------------------------------------------------------------------|
G|----------------------------------------------------------------------------------------|
D|-4-4-4-4-4-4-4-4-4-4-4-4-4-4-4-4---0-0-0-0-0-0-0-0-0-0-0-0-0-0-0-0----------------------|
A|-4-4-4-4-4-4-4-4-4-4-4-4-4-4-4-4---0-0-0-0-0-0-0-0-0-0-0-0-0-0-0-0----------------------|
D|-4-4-4-4-4-4-4-4-4-4-4-4-4-4-4-4---0-0-0-0-0-0-0-0-0-0-0-0-0-0-0-0----------------------|
   . . . . . . . . . . . . . . . .   . . . . . . . . . . . . . . . .

  Gtr. 2
e|----------------------------------------------------------------------------------------|
B|----------------------------------------------------------------------------------------|
G|----13--13-14-13----13--13-14-13--------9--9-11-9---------------------------------------|
D|--11--11----------11--11--------11----11-11------11----11-9-7-12-11-9-11----------------|
A|-9---------------9----------------------------------------------------------------------|
D|------------------------------------12---------------12---------------------------------|


  Gtr. 1
e|----------------------------------------------------------------------------------------|
B|----------------------------------------------------------------------------------------|
G|----------------------------------------------------------------------------------------|
D|-4-4-4-4-4-4-4-4-4-4-4-4-4-4-4-4---0-0-0-0-0-0-0-0-0-0-0-0-0-0-0-0----------------------|
A|-4-4-4-4-4-4-4-4-4-4-4-4-4-4-4-4---0-0-0-0-0-0-0-0-0-0-0-0-0-0-0-0----------------------|
D|-4-4-4-4-4-4-4-4-4-4-4-4-4-4-4-4---0-0-0-0-0-0-0-0-0-0-0-0-0-0-0-0----------------------|
   . . . . . . . . . . . . . . . .   . . . . . . . . . . . . . . . .

  Gtr. 2
e|----------------------------------------------------------------------------------------|
B|----------------------------------------------------------------------------------------|
G|----13--13-14-13----13--13-14-13--------9--9-11-9---------------------------------------|
D|--11--11----------11--11--------11----11-11------11----11-9-7-12-11-9-11----------------|
A|-9---------------9----------------------------------------------------------------------|
D|------------------------------------12---------------12---------------------------------|
  Gtr. 1
e|----------------------------------------------------------------------------------------|
B|----------------------------------------------------------------------------------------|
G|----------------------------------------------------------------------------------------|
D|-4-4-4-4-4-4-4-4-4-4-4-4-4-4-4-4---0-0-0-0-0-0-0-0-0-0-0-0-0-0-0-0----------------------|
A|-4-4-4-4-4-4-4-4-4-4-4-4-4-4-4-4---0-0-0-0-0-0-0-0-0-0-0-0-0-0-0-0----------------------|
D|-4-4-4-4-4-4-4-4-4-4-4-4-4-4-4-4---0-0-0-0-0-0-0-0-0-0-0-0-0-0-0-0----------------------|
   . . . . . . . . . . . . . . . .   . . . . . . . . . . . . . . . .

  Gtr. 2
e|----------------------------------------------------------------------------------------|
B|----------------------------------------------------------------------------------------|
G|----13--13-14-13----13--13-14-13--------9--9-11-9---------------------------------------|
D|--11--11----------11--11--------11----11-11------11----11-9-7-12-11-9-11----------------|
A|-9---------------9----------------------------------------------------------------------|
D|------------------------------------12---------------12---------------------------------|

  Gtr. 1
e|----------------------------------------------------------------------------------------|
B|----------------------------------------------------------------------------------------|
G|----------------------------------------------------------------------------------------|
D|-4-4-4-4-4-4-4-4-4-4-4-4-4-4-4-4---0-0-0-0-0-0-0-0-0-0-0-0-0-0-0-0----------------------|
A|-4-4-4-4-4-4-4-4-4-4-4-4-4-4-4-4---0-0-0-0-0-0-0-0-0-0-0-0-0-0-0-0----------------------|
D|-4-4-4-4-4-4-4-4-4-4-4-4-4-4-4-4---0-0-0-0-0-0-0-0-0-0-0-0-0-0-0-0----------------------|
   . . . . . . . . . . . . . . . .   . . . . . . . . . . . . . . . .

  Gtr. 2
e|----------------------------------------------------------------------------------------|
B|----------------------------------------------------------------------------------------|
G|----13--13-14-13----13--13-14-13--------9--9-11-9---------------------------------------|
D|--11--11----------11--11--------11----11-11------11----11-9-7-12-11-9-11----------------|
A|-9---------------9----------------------------------------------------------------------|
D|------------------------------------12---------------12---------------------------------|

Gtr. 1
e|----------------------------------------------------------------------------------------|
B|----------------------------------------------------------------------------------------|
G|----------------------------------------------------------------------------------------|
D|-4-4-4-4-4-4-4-4-4-4-4-4-4-4-4-4--2h4--2h4--0-0-0-0-0-0-0-0-0-0-0-0-0-0-0-0-2-2-2-2-----|
A|-4-4-4-4-4-4-4-4-4-4-4-4-4-4-4-4--2h4--2h4--0-0-0-0-0-0-0-0-0-0-0-0-0-0-0-0-2-2-2-2-----|
D|-4-4-4-4-4-4-4-4-4-4-4-4-4-4-4-4--2h4--2h4--0-0-0-0-0-0-0-0-0-0-0-0-0-0-0-0-2-2-2-2-----|

  Gtr. 2
e|----------------------------------------------------------------------------------------|
B|----------------------------------------------------------------------------------------|
G|--------------------13-13-13-13-13-14-13-11-------------------13-13-13-13-13-14-13-11---|
D|---------11-11-11-11-------------------------------11-11-11-11--------------------------|
A|-9-9-9-9------------------------------------9-9-9-9-------------------------------------|
D|----------------------------------------------------------------------------------------|


Gtr. 1
e|----------------------------------------------------------------------------------------|
B|----------------------------------------------------------------------------------------|
G|----------------------------------------------------------------------------------------|
D|-4-4-4-4-4-4-4-4-4-4-4-4-4-4-4-4--2h4--2h4--0-0-0-0-0-0-0-0-0-0-0-0-0-0-0-0-2-2-2-2-----|
A|-4-4-4-4-4-4-4-4-4-4-4-4-4-4-4-4--2h4--2h4--0-0-0-0-0-0-0-0-0-0-0-0-0-0-0-0-2-2-2-2-----|
D|-4-4-4-4-4-4-4-4-4-4-4-4-4-4-4-4--2h4--2h4--0-0-0-0-0-0-0-0-0-0-0-0-0-0-0-0-2-2-2-2-----|

  Gtr. 2
e|----------------------------------------------------------------------------------------|
B|----------------------------------------------------------------------------------------|
G|-------------------13-13-13-13-13-14-13-11-9-9-9-9-9-9-9-9-9-9-9-9-9-9-9-9-9-9-9-9------|
D|--------11-11-11-11---------------------------------------------------------------------|
A|-9-9-9-9--------------------------------------------------------------------------------|
D|----------------------------------------------------------------------------------------|


VERSE 1

  Gtr. 1
e|----------------------------------------------------------------------------------------|
B|----------------------------------------------------------------------------------------|
G|----------------------------------------------------------------------------------------|
D|-4-4-4-4-4-4-4-4-4-4-4-4-4-4-4-4---0-0-0-0-0-0-0-0-0-0-0-0-0-0-0-0----------------------|
A|-4-4-4-4-4-4-4-4-4-4-4-4-4-4-4-4---0-0-0-0-0-0-0-0-0-0-0-0-0-0-0-0----------------------|
D|-4-4-4-4-4-4-4-4-4-4-4-4-4-4-4-4---0-0-0-0-0-0-0-0-0-0-0-0-0-0-0-0----------------------|
   . . . . . . . . . . . . . . . .   . . . . . . . . . . . . . . . .
There's someone inside me that softly kills everyone around. They don't


  Gtr. 1
e|----------------------------------------------------------------------------------------|
B|----------------------------------------------------------------------------------------|
G|----------------------------------------------------------------------------------------|
D|-4-4-4-4-4-4-4-4-4-4-4-4-4-4-4-4---0-0-0-0-0-0-0-0-0-0-0-0-0-0-0-0----------------------|
A|-4-4-4-4-4-4-4-4-4-4-4-4-4-4-4-4---0-0-0-0-0-0-0-0-0-0-0-0-0-0-0-0----------------------|
D|-4-4-4-4-4-4-4-4-4-4-4-4-4-4-4-4---0-0-0-0-0-0-0-0-0-0-0-0-0-0-0-0----------------------|
   . . . . . . . . . . . . . . . .   . . . . . . . . . . . . . . . .
   know they're dead to me 'cause  intent never makes a sound.


  Gtr. 1
e|----------------------------------------------------------------------------------------|
B|----------------------------------------------------------------------------------------|
G|----------------------------------------------------------------------------------------|
D|-4-4-4-4-4-4-4-4-4-4-4-4-4-4-4-4---0-0-0-0-0-0-0-0-0-0-0-0-0-0-0-0----------------------|
A|-4-4-4-4-4-4-4-4-4-4-4-4-4-4-4-4---0-0-0-0-0-0-0-0-0-0-0-0-0-0-0-0----------------------|
D|-4-4-4-4-4-4-4-4-4-4-4-4-4-4-4-4---0-0-0-0-0-0-0-0-0-0-0-0-0-0-0-0----------------------|
           . . . . . . . .                   . . . . . . . .

  Gtr. 2
e|----------------------------------------------------------------------------------------|
B|----------------------------------------------------------------------------------------|
G|----13--13-14-13----13--13-14-13--------9--9-11-9---------------------------------------|
D|--11--11----------11--11--------11----11-11------11----11-9-7-12-11-9-11----------------|
A|-9---------------9----------------------------------------------------------------------|
D|------------------------------------12---------------12---------------------------------|
All along,
they have found I have strangled lovers who have learned from slower hands


 Gtr. 1
e|----------------------------------------------------------------------------------------|
B|----------------------------------------------------------------------------------------|
G|----------------------------------------------------------------------------------------|
D|-4-4-4-4-4-4-4-4-4-4-4-4-4-4-4-4---0-0-0-0-0-0-0-0-0-0-0-0-X-X-X-X----------------------|
A|-4-4-4-4-4-4-4-4-4-4-4-4-4-4-4-4---0-0-0-0-0-0-0-0-0-0-0-0-X-X-X-X----------------------|
D|-4-4-4-4-4-4-4-4-4-4-4-4-4-4-4-4---0-0-0-0-0-0-0-0-0-0-0-0-X-X-X-X----------------------|
           . . . . . . . .                   . . . . . . . .

    Gtr. 2
e|----------------------------------------------------------------------------------------|
B|----------------------------------------------------------------------------------------|
G|----13--13-14-13----13--13-14-13--------9--9-11-9---------------------------------------|
D|--11--11----------11--11--------11----11-11------11----11-9-7-12-11-9-11----------------|
A|-9---------------9----------------------------------------------------------------------|
D|------------------------------------12---------------12---------------------------------|
  In these eleven minutes I could    teach you what I am.


CHORUS

  Gtr. 1
e|----------------------------------------------------------------------------------------|
B|----------------------------------------------------------------------------------------|
G|----------------------------------------------------------------------------------------|
D|-4-4-4-4-4-4-4-4-4-4-4-4-4-4-4-4--2h4--2h4--0-0-0-0-0-0-0-0-0-0-0-0-0-0-0-0-2-2-2-2-----|
A|-4-4-4-4-4-4-4-4-4-4-4-4-4-4-4-4--2h4--2h4--0-0-0-0-0-0-0-0-0-0-0-0-0-0-0-0-2-2-2-2-----|
D|-4-4-4-4-4-4-4-4-4-4-4-4-4-4-4-4--2h4--2h4--0-0-0-0-0-0-0-0-0-0-0-0-0-0-0-0-2-2-2-2-----|

  Gtr. 2
e|----------------------------------------------------------------------------------------|
B|----------------------------------------------------------------------------------------|
G|--------------------13-13-13-13-13-14-13-11-------------------13-13-13-13-13-14-13-11---|
D|---------11-11-11-11-------------------------------11-11-11-11--------------------------|
A|-9-9-9-9------------------------------------9-9-9-9-------------------------------------|
D|----------------------------------------------------------------------------------------|

  You're  sick -     sick       as all the -      secrets       that you deny.


  Gtr. 1
e|----------------------------------------------------------------------------------------|
B|----------------------------------------------------------------------------------------|
G|----------------------------------------------------------------------------------------|
D|-4-4-4-4-4-4-4-4-4-4-4-4-4-4-4-4--2h4--2h4--0-0-0-0-0-0-0-0-0-0-0-0-0-0-0-0-2-2-2-2-----|
A|-4-4-4-4-4-4-4-4-4-4-4-4-4-4-4-4--2h4--2h4--0-0-0-0-0-0-0-0-0-0-0-0-0-0-0-0-2-2-2-2-----|
D|-4-4-4-4-4-4-4-4-4-4-4-4-4-4-4-4--2h4--2h4--0-0-0-0-0-0-0-0-0-0-0-0-0-0-0-0-2-2-2-2-----|

  Gtr. 2
e|----------------------------------------------------------------------------------------|
B|----------------------------------------------------------------------------------------|
G|-------------------13-13-13-13-13-14-13-11-9-9-9-9-9-9-9-9-9-9-9-9-9-9-9-9-9-9-9-9------|
D|--------11-11-11-11---------------------------------------------------------------------|
A|-9-9-9-9--------------------------------------------------------------------------------|
D|----------------------------------------------------------------------------------------|

  Sins   like           ske-  le-   tons      are        so very hard to hide.


  Gtr. 1
e|----------------------------------------------------------------------------------------|
B|----------------------------------------------------------------------------------------|
G|----------------------------------------------------------------------------------------|
D|-4-4-4-4-4-4-4-4-4-4-4-4-4-4-4-4--2h4--2h4--0-0-0-0-0-0-0-0-0-0-0-0-0-0-0-0-2-2-2-2-----|
A|-4-4-4-4-4-4-4-4-4-4-4-4-4-4-4-4--2h4--2h4--0-0-0-0-0-0-0-0-0-0-0-0-0-0-0-0-2-2-2-2-----|
D|-4-4-4-4-4-4-4-4-4-4-4-4-4-4-4-4--2h4--2h4--0-0-0-0-0-0-0-0-0-0-0-0-0-0-0-0-2-2-2-2-----|

  Gtr. 2
e|----------------------------------------------------------------------------------------|
B|----------------------------------------------------------------------------------------|
G|--------------------13-13-13-13-13-14-13-11-------------------13-13-13-13-13-14-13-11---|
D|---------11-11-11-11-------------------------------11-11-11-11--------------------------|
A|-9-9-9-9------------------------------------9-9-9-9-------------------------------------|
D|----------------------------------------------------------------------------------------|

  You're  sick -     sick       as all the -      secrets       that you deny.


  Gtr. 1
e|----------------------------------------------------------------------------------------|
B|----------------------------------------------------------------------------------------|
G|----------------------------------------------------------------------------------------|
D|-4-4-4-4-4-4-4-4-4-4-4-4-4-4-4-4--2h4--2h4--0-0-0-0-0-0-0-0-0-0-0-0-0-0-0-0-2-2-2-2-----|
A|-4-4-4-4-4-4-4-4-4-4-4-4-4-4-4-4--2h4--2h4--0-0-0-0-0-0-0-0-0-0-0-0-0-0-0-0-2-2-2-2-----|
D|-4-4-4-4-4-4-4-4-4-4-4-4-4-4-4-4--2h4--2h4--0-0-0-0-0-0-0-0-0-0-0-0-0-0-0-0-2-2-2-2-----|

  Gtr. 2
e|----------------------------------------------------------------------------------------|
B|----------------------------------------------------------------------------------------|
G|-------------------13-13-13-13-13-14-13-11-9-9-9-9-9-9-9-9-9-9-9-9-9-9-9-9-9-9-9-9------|
D|--------11-11-11-11---------------------------------------------------------------------|
A|-9-9-9-9--------------------------------------------------------------------------------|
D|----------------------------------------------------------------------------------------|

  Sins   like           ske-  le-   tons      are        so very hard to hide.


VERSE 2

  Gtr. 1
e|----------------------------------------------------------------------------------------|
B|----------------------------------------------------------------------------------------|
G|----------------------------------------------------------------------------------------|
D|-4-4-4-4-4-4-4-4-4-4-4-4-4-4-4-4---0-0-0-0-0-0-0-0-0-0-0-0-0-0-0-0----------------------|
A|-4-4-4-4-4-4-4-4-4-4-4-4-4-4-4-4---0-0-0-0-0-0-0-0-0-0-0-0-0-0-0-0----------------------|
D|-4-4-4-4-4-4-4-4-4-4-4-4-4-4-4-4---0-0-0-0-0-0-0-0-0-0-0-0-0-0-0-0----------------------|
   . . . . . . . . . . . . . . . .   . . . . . . . . . . . . . . . .

   Gtr. 2
e|----------------------------------------------------------------------------------------|
B|----------------------------------------------------------------------------------------|
G|----13--13-14-13----13--13-14-13--------9--9-11-9---------------------------------------|
D|--11--11----------11--11--------11----11-11------11----11-9-7-12-11-9-11----------------|
A|-9---------------9----------------------------------------------------------------------|
D|------------------------------------12---------------12---------------------------------|
  There is an art in seclusion. Pro- duction in depression. If a


  Gtr. 1
e|----------------------------------------------------------------------------------------|
B|----------------------------------------------------------------------------------------|
G|----------------------------------------------------------------------------------------|
D|-4-4-4-4-4-4-4-4-4-4-4-4-4-4-4-4---0-0-0-0-0-0-0-0-0-0-0-0-0-0-0-0----------------------|
A|-4-4-4-4-4-4-4-4-4-4-4-4-4-4-4-4---0-0-0-0-0-0-0-0-0-0-0-0-0-0-0-0----------------------|
D|-4-4-4-4-4-4-4-4-4-4-4-4-4-4-4-4---0-0-0-0-0-0-0-0-0-0-0-0-0-0-0-0----------------------|
   . . . . . . . . . . . . . . . .   . . . . . . . . . . . . . . . .

   Gtr. 2
e|----------------------------------------------------------------------------------------|
B|----------------------------------------------------------------------------------------|
G|----13--13-14-13----13--13-14-13--------9--9-11-9---------------------------------------|
D|--11--11----------11--11--------11----11-11------11----11-9-7-12-11-9-11----------------|
A|-9---------------9----------------------------------------------------------------------|
D|------------------------------------12---------------12---------------------------------|     
  stranger turns up missing, this    song is my confession.


  Gtr. 1
e|----------------------------------------------------------------------------------------|
B|----------------------------------------------------------------------------------------|
G|----------------------------------------------------------------------------------------|
D|-4-4-4-4--------------------------------------------------------------------------------|
A|-4-4-4-4--------------------------------------------------------------------------------|
D|-4-4-4-4--------------------------------------------------------------------------------|

          Tell the tales of the trail of dead.
 Gtr. 2
e|----------------------------------------------------------------------------------------|
B|----------------------------------------------------------------------------------------|
G|------------14--------14--------14--------14--------------------------------------------|
D|--------11--------11--------11--------11------------------------------------------------|
A|----------------------------------------------------------------------------------------|
D|----------------------------------------------------------------------------------------|


  Gtr. 1
e|----------------------------------------------------------------------------------------|
B|----------------------------------------------------------------------------------------|
G|----------------------------------------------------------------------------------------|
D|-0-0-0-0--------------------------------------------------------------------------------|
A|-0-0-0-0--------------------------------------------------------------------------------|
D|-0-0-0-0--------------------------------------------------------------------------------|

 Gtr. 2
e|----------------------------------------------------------------------------------------|
B|----------------------------------------------------------------------------------------|
G|------------14--------14--------14--------14--------------------------------------------|
D|--------11--------11--------11--------11------------------------------------------------|
A|----------------------------------------------------------------------------------------|
D|----------------------------------------------------------------------------------------|

           Lovers learn from slower hands.


    Gtr. 1
e|----------------------------------------------------------------------------------------|
B|----------------------------------------------------------------------------------------|
G|----------------------------------------------------------------------------------------|
D|-4-4-4-4--------------------------------------------------------------------------------|
A|-4-4-4-4--------------------------------------------------------------------------------|
D|-4-4-4-4--------------------------------------------------------------------------------|

           Losing myself in myself.


  Gtr. 1
e|----------------------------------------------------------------------------------------|
B|----------------------------------------------------------------------------------------|
G|----------------------------------------------------------------------------------------|
D|-0~-------------------------------------------------------------------------------------|
A|-0~-------------------------------------------------------------------------------------|
D|-0~-------------------------------------------------------------------------------------|

 Gtr. 2
e|----------------------------------------------------------------------------------------|
B|-------------------------------|pickslide|----------------------------------------------|
G|----------------------------------------------------------------------------------------|
D|----------------------------------------------------------------------------------------|
A|----------------------------------------------------------------------------------------|
D|----------------------------------------------------------------------------------------|

           Inner demons make demands.


CHORUS

  Gtr. 1
e|----------------------------------------------------------------------------------------|
B|----------------------------------------------------------------------------------------|
G|----------------------------------------------------------------------------------------|
D|-4-4-4-4-4-4-4-4-4-4-4-4-4-4-4-4--2h4--2h4--0-0-0-0-0-0-0-0-0-0-0-0-0-0-0-0-2-2-2-2-----|
A|-4-4-4-4-4-4-4-4-4-4-4-4-4-4-4-4--2h4--2h4--0-0-0-0-0-0-0-0-0-0-0-0-0-0-0-0-2-2-2-2-----|
D|-4-4-4-4-4-4-4-4-4-4-4-4-4-4-4-4--2h4--2h4--0-0-0-0-0-0-0-0-0-0-0-0-0-0-0-0-2-2-2-2-----|

  Gtr. 2
e|----------------------------------------------------------------------------------------|
B|----------------------------------------------------------------------------------------|
G|--------------------13-13-13-13-13-14-13-11-------------------13-13-13-13-13-14-13-11---|
D|---------11-11-11-11-------------------------------11-11-11-11--------------------------|
A|-9-9-9-9------------------------------------9-9-9-9-------------------------------------|
D|----------------------------------------------------------------------------------------|

  You're  sick -     sick       as all the -      secrets       that you deny.


  Gtr. 1
e|----------------------------------------------------------------------------------------|
B|----------------------------------------------------------------------------------------|
G|----------------------------------------------------------------------------------------|
D|-4-4-4-4-4-4-4-4-4-4-4-4-4-4-4-4--2h4--2h4--0-0-0-0-0-0-0-0-0-0-0-0-0-0-0-0-2-2-2-2-----|
A|-4-4-4-4-4-4-4-4-4-4-4-4-4-4-4-4--2h4--2h4--0-0-0-0-0-0-0-0-0-0-0-0-0-0-0-0-2-2-2-2-----|
D|-4-4-4-4-4-4-4-4-4-4-4-4-4-4-4-4--2h4--2h4--0-0-0-0-0-0-0-0-0-0-0-0-0-0-0-0-2-2-2-2-----|

  Gtr. 2
e|----------------------------------------------------------------------------------------|
B|----------------------------------------------------------------------------------------|
G|-------------------13-13-13-13-13-14-13-11-9-9-9-9-9-9-9-9-9-9-9-9-9-9-9-9-9-9-9-9------|
D|--------11-11-11-11---------------------------------------------------------------------|
A|-9-9-9-9--------------------------------------------------------------------------------|
D|----------------------------------------------------------------------------------------|

  Sins   like           ske-  le-   tons      are        so very hard to hide.


  Gtr. 1
e|----------------------------------------------------------------------------------------|
B|----------------------------------------------------------------------------------------|
G|----------------------------------------------------------------------------------------|
D|-4-4-4-4-4-4-4-4-4-4-4-4-4-4-4-4--2h4--2h4--0-0-0-0-0-0-0-0-0-0-0-0-0-0-0-0-2-2-2-2-----|
A|-4-4-4-4-4-4-4-4-4-4-4-4-4-4-4-4--2h4--2h4--0-0-0-0-0-0-0-0-0-0-0-0-0-0-0-0-2-2-2-2-----|
D|-4-4-4-4-4-4-4-4-4-4-4-4-4-4-4-4--2h4--2h4--0-0-0-0-0-0-0-0-0-0-0-0-0-0-0-0-2-2-2-2-----|

  Gtr. 2
e|----------------------------------------------------------------------------------------|
B|----------------------------------------------------------------------------------------|
G|--------------------13-13-13-13-13-14-13-11-------------------13-13-13-13-13-14-13-11---|
D|---------11-11-11-11-------------------------------11-11-11-11--------------------------|
A|-9-9-9-9------------------------------------9-9-9-9-------------------------------------|
D|----------------------------------------------------------------------------------------|

  You're  sick -     sick       as all the -      secrets       that you deny.


  Gtr. 1
e|----------------------------------------------------------------------------------------|
B|----------------------------------------------------------------------------------------|
G|----------------------------------------------------------------------------------------|
D|-4-4-4-4-4-4-4-4-4-4-4-4-4-4-4-4--2h4--2h4--0-0-0-0-0-0-0-0-0-0-0-0-0-0-0-0-2-2-2-2-----|
A|-4-4-4-4-4-4-4-4-4-4-4-4-4-4-4-4--2h4--2h4--0-0-0-0-0-0-0-0-0-0-0-0-0-0-0-0-2-2-2-2-----|
D|-4-4-4-4-4-4-4-4-4-4-4-4-4-4-4-4--2h4--2h4--0-0-0-0-0-0-0-0-0-0-0-0-0-0-0-0-2-2-2-2-----|

  Gtr. 2
e|----------------------------------------------------------------------------------------|
B|----------------------------------------------------------------------------------------|
G|-------------------13-13-13-13-13-14-13-11-9-9-9-9-9-9-9-9-9-9-9-9-9-9-9-9-9-9-9-9------|
D|--------11-11-11-11---------------------------------------------------------------------|
A|-9-9-9-9--------------------------------------------------------------------------------|
D|----------------------------------------------------------------------------------------|

  Sins   like           ske-  le-   tons      are        so very hard to hide.


SOLO

  Gtr. 1
e|----------------------------------------------------------------------------------------|
B|----------------------------------------------------------------------------------------|
G|----------------------------------------------------------------------------------------|
D|------4-4--4-4-4--4-4-4--4-4-4--2-------4-4--4-4-4--4-4-4--4-4-4-2----------------------|
A|------4-4--4-4-4--4-4-4--4-4-4--2-------4-4--4-4-4--4-4-4--4-4-4-2----------------------|
D|------4-4--4-4-4--4-4-4--4-4-4--2-------4-4--4-4-4--4-4-4--4-4-4-2----------------------|

 Gtr. 2
e|----------------------------------------------------------------------------------------|
B|----------------------------------------------------------------------------------------|
G|--------13--13-14-13------13--13-14-13------13--13-14-13------13--13-14-13--------------|
D|------11--11--------11--11--11--------11--11--11--------11--11--11--------11------------|
A|-----9-----------------9-----------------9-----------------9----------------------------|
D|----------------------------------------------------------------------------------------|

  Gtr. 3
e|----------------------------------------------------------------------------------------|
B|-7b~--7-----7-----7-----7----7~------9-----9-----9----9----9~---------------------------|
G|------9b----9b----9b----9b---9b~-----11b---11b--11b---11b--11b~-------------------------|
D|----------------------------------------------------------------------------------------|
A|----------------------------------------------------------------------------------------|
D|----------------------------------------------------------------------------------------|


  Gtr. 1
e|----------------------------------------------------------------------------------------|
B|----------------------------------------------------------------------------------------|
G|----------------------------------------------------------------------------------------|
D|------4-4--4-4-4--4-4-4--4-4-4--2-------0-0--0-0-0--0-0-0--0-0-0-2----------------------|
A|------4-4--4-4-4--4-4-4--4-4-4--2-------0-0--0-0-0--0-0-0--0-0-0-2----------------------|
D|------4-4--4-4-4--4-4-4--4-4-4--2-------0-0--0-0-0--0-0-0--0-0-0-2----------------------|

   Gtr. 2
e|----------------------------------------------------------------------------------------|
B|----------------------------------------------------------------------------------------|
G|----13--13-14-13----13--13-14-13--------9--9-11-9---------------------------------------|
D|--11--11----------11--11--------11----11-11------11----11-9-7-12-11-9-11----------------|
A|-9---------------9----------------------------------------------------------------------|
D|------------------------------------12---------------12---------------------------------|
  Gtr. 3
e|----------------------------------------------------------------------------------------|
B|------10----10----10----10----10~------12~----------------------------------------------|
G|------12b---12b---12b---12b---12b~-----14b~---------------------------------------------|
D|----------------------------------------------------------------------------------------|
A|----------------------------------------------------------------------------------------|
D|----------------------------------------------------------------------------------------|


  Gtr. 1
e|----------------------------------------------------------------------------------------|
B|----------------------------------------------------------------------------------------|
G|----------------------------------------------------------------------------------------|
D|------4-4--4-4-4--4-4-4--4-4-4--2-------4-4--4-4-4--4-4-4--4-4-4-2----------------------|
A|------4-4--4-4-4--4-4-4--4-4-4--2-------4-4--4-4-4--4-4-4--4-4-4-2----------------------|
D|------4-4--4-4-4--4-4-4--4-4-4--2-------4-4--4-4-4--4-4-4--4-4-4-2----------------------|

 Gtr. 2
e|----------------------------------------------------------------------------------------|
B|----------------------------------------------------------------------------------------|
G|--------13--13-14-13------13--13-14-13------13--13-14-13------13--13-14-13--------------|
D|------11--11--------11--11--11--------11--11--11--------11--11--11--------11------------|
A|-----9-----------------9-----------------9-----------------9----------------------------|
D|----------------------------------------------------------------------------------------|

  Gtr. 3
e|----------------------------------------------------------------------------------------|
B|------7-----7-----7-----7----7~------9-----9-----9----9----9~---------------------------|
G|------9b----9b----9b----9b---9b~-----11b---11b--11b---11b--11b~-------------------------|
D|----------------------------------------------------------------------------------------|
A|----------------------------------------------------------------------------------------|
D|----------------------------------------------------------------------------------------|


  Gtr. 1
e|----------------------------------------------------------------------------------------|
B|----------------------------------------------------------------------------------------|
G|----------------------------------------------------------------------------------------|
D|------4-4--4-4-4--4-4-4--4-4-4--2-------0-0--0-0-0--0-0-0--0-0-0-2----------------------|
A|------4-4--4-4-4--4-4-4--4-4-4--2-------0-0--0-0-0--0-0-0--0-0-0-2----------------------|
D|------4-4--4-4-4--4-4-4--4-4-4--2-------0-0--0-0-0--0-0-0--0-0-0-2----------------------|

   Gtr. 2
e|----------------------------------------------------------------------------------------|
B|----------------------------------------------------------------------------------------|
G|----13--13-14-13----13--13-14-13--------9--9-11-9---------------------------------------|
D|--11--11----------11--11--------11----11-11------11----11-9-7-12-11-9-11----------------|
A|-9---------------9----------------------------------------------------------------------|
D|------------------------------------12---------------12---------------------------------|

  Gtr. 3
e|----------------------------------------------------------------------------------------|
B|------10----10----10----10----10~------12~----------------------------------------------|
G|------12b---12b---12b---12b---12b~-----14b~---------------------------------------------|
D|----------------------------------------------------------------------------------------|
A|----------------------------------------------------------------------------------------|
D|----------------------------------------------------------------------------------------|


 Gtr. 1
e|----------------------------------------------------------------------------------------|
B|----------------------------------------------------------------------------------------|
G|----------------------------------------------------------------------------------------|
D|------0-0--0-0-0--0-0-0--0-0-0-2--------------------------------------------------------|
A|------0-0--0-0-0--0-0-0--0-0-0-2--------------------------------------------------------|
D|------0-0--0-0-0--0-0-0--0-0-0-2--------------------------------------------------------|

 Gtr. 2
e|----------------------------------------------------------------------------------------|
B|----------------------------------------------------------------------------------------|
G|--------13--13-14-13------13--13-14-13--------------------------------------------------|
D|------11--11--------11--11--11-------11-------------------------------------------------|
A|-----9-----------------9----------------------------------------------------------------|
D|----------------------------------------------------------------------------------------|

  Gtr. 3
e|----------------------------------------------------------------------------------------|
B|------12~-------------------------------------------------------------------------------|
G|------14b~------------------------------------------------------------------------------|
D|----------------------------------------------------------------------------------------|
A|----------------------------------------------------------------------------------------|
D|----------------------------------------------------------------------------------------|


INTERLUDE

Gtr. 1
e|----------------------------------------------------------------------------------------|
B|----------------------------------------------------------------------------------------|
G|----------------------------------------------------------------------------------------|
D|-4-4-4-4-4-4-4-4-4-4-4-4-4-4-4-4---0-0-0-0-0-0-0-0-0-0-0-0-0-0-0-0----------------------|
A|-4-4-4-4-4-4-4-4-4-4-4-4-4-4-4-4---0-0-0-0-0-0-0-0-0-0-0-0-0-0-0-0----------------------|
D|-4-4-4-4-4-4-4-4-4-4-4-4-4-4-4-4---0-0-0-0-0-0-0-0-0-0-0-0-0-0-0-0----------------------|
   . . . . . . . . . . . . . . . .   . . . . . . . . . . . . . . . .

        You're suffocating me so     very hard to breathe.       My


Gtr. 1
e|------------------------------------------------------------|
B|------------------------------------------------------------|
G|------------------------------------------------------------|
D|-4-4-4-4-4-4-4-4-4-4-4-4-4-4-4-4---0-0-0-0-0-0-0-0-0-0-0-0--|
A|-4-4-4-4-4-4-4-4-4-4-4-4-4-4-4-4---0-0-0-0-0-0-0-0-0-0-0-0--|
D|-4-4-4-4-4-4-4-4-4-4-4-4-4-4-4-4---0-0-0-0-0-0-0-0-0-0-0-0--|
   . . . . . . . . . . . . . . . .   . . . . . . . . . . . .

   mask is growing heavy, but I've    forgotten who's beneath.


CHORUS

  Gtr. 1
e|----------------------------------------------------------------------------------------|
B|----------------------------------------------------------------------------------------|
G|----------------------------------------------------------------------------------------|
D|-4-4-4-4-4-4-4-4-4-4-4-4-4-4-4-4--2h4--2h4--0-0-0-0-0-0-0-0-0-0-0-0-0-0-0-0-2-2-2-2-----|
A|-4-4-4-4-4-4-4-4-4-4-4-4-4-4-4-4--2h4--2h4--0-0-0-0-0-0-0-0-0-0-0-0-0-0-0-0-2-2-2-2-----|
D|-4-4-4-4-4-4-4-4-4-4-4-4-4-4-4-4--2h4--2h4--0-0-0-0-0-0-0-0-0-0-0-0-0-0-0-0-2-2-2-2-----|

  Gtr. 2
e|----------------------------------------------------------------------------------------|
B|----------------------------------------------------------------------------------------|
G|--------------------13-13-13-13-13-14-13-11-------------------13-13-13-13-13-14-13-11---|
D|---------11-11-11-11-------------------------------11-11-11-11--------------------------|
A|-9-9-9-9------------------------------------9-9-9-9-------------------------------------|
D|----------------------------------------------------------------------------------------|

  You're  sick -     sick       as all the -      secrets       that you deny.


  Gtr. 1
e|----------------------------------------------------------------------------------------|
B|----------------------------------------------------------------------------------------|
G|----------------------------------------------------------------------------------------|
D|-4-4-4-4-4-4-4-4-4-4-4-4-4-4-4-4--2h4--2h4--0-0-0-0-0-0-0-0-0-0-0-0-0-0-0-0-2-2-2-2-----|
A|-4-4-4-4-4-4-4-4-4-4-4-4-4-4-4-4--2h4--2h4--0-0-0-0-0-0-0-0-0-0-0-0-0-0-0-0-2-2-2-2-----|
D|-4-4-4-4-4-4-4-4-4-4-4-4-4-4-4-4--2h4--2h4--0-0-0-0-0-0-0-0-0-0-0-0-0-0-0-0-2-2-2-2-----|

  Gtr. 2
e|----------------------------------------------------------------------------------------|
B|----------------------------------------------------------------------------------------|
G|-------------------13-13-13-13-13-14-13-11-9-9-9-9-9-9-9-9-9-9-9-9-9-9-9-9-9-9-9-9------|
D|--------11-11-11-11---------------------------------------------------------------------|
A|-9-9-9-9--------------------------------------------------------------------------------|
D|----------------------------------------------------------------------------------------|

  Sins   like           ske-  le-   tons      are        so very hard to hide.


  Gtr. 1
e|----------------------------------------------------------------------------------------|
B|----------------------------------------------------------------------------------------|
G|----------------------------------------------------------------------------------------|
D|-4-4-4-4-4-4-4-4-4-4-4-4-4-4-4-4--2h4--2h4--0-0-0-0-0-0-0-0-0-0-0-0-0-0-0-0-2-2-2-2-----|
A|-4-4-4-4-4-4-4-4-4-4-4-4-4-4-4-4--2h4--2h4--0-0-0-0-0-0-0-0-0-0-0-0-0-0-0-0-2-2-2-2-----|
D|-4-4-4-4-4-4-4-4-4-4-4-4-4-4-4-4--2h4--2h4--0-0-0-0-0-0-0-0-0-0-0-0-0-0-0-0-2-2-2-2-----|

  Gtr. 2
e|----------------------------------------------------------------------------------------|
B|----------------------------------------------------------------------------------------|
G|--------------------13-13-13-13-13-14-13-11-------------------13-13-13-13-13-14-13-11---|
D|---------11-11-11-11-------------------------------11-11-11-11--------------------------|
A|-9-9-9-9------------------------------------9-9-9-9-------------------------------------|
D|----------------------------------------------------------------------------------------|

  You're  sick -     sick       as all the -      secrets       that you deny.


  Gtr. 1
e|----------------------------------------------------------------------------------------|
B|----------------------------------------------------------------------------------------|
G|----------------------------------------------------------------------------------------|
D|-4-4-4-4-4-4-4-4-4-4-4-4-4-4-4-4--2h4--2h4--0-0-0-0-0-0-0-0-0-0-0-0-0-0-0-0-2-2-2-2-----|
A|-4-4-4-4-4-4-4-4-4-4-4-4-4-4-4-4--2h4--2h4--0-0-0-0-0-0-0-0-0-0-0-0-0-0-0-0-2-2-2-2-----|
D|-4-4-4-4-4-4-4-4-4-4-4-4-4-4-4-4--2h4--2h4--0-0-0-0-0-0-0-0-0-0-0-0-0-0-0-0-2-2-2-2-----|

  Gtr. 2
e|----------------------------------------------------------------------------------------|
B|----------------------------------------------------------------------------------------|
G|-------------------13-13-13-13-13-14-13-11-9-9-9-9-9-9-9-9-9-9-9-9-9-9-9-9-9-9-9-9------|
D|--------11-11-11-11---------------------------------------------------------------------|
A|-9-9-9-9--------------------------------------------------------------------------------|
D|----------------------------------------------------------------------------------------|

  Sins   like           ske-  le-   tons      are        so very hard to hide.


OUTRO

  Gtr. 1
e|----------------------------------------------------------------------------------------|
B|----------------------------------------------------------------------------------------|
G|----------------------------------------------------------------------------------------|
D|--4--4----4--4--4-----4--4--4---4--4--4---2---------------------------------------------|
A|--4--4----4--4--4-----4--4--4---4--4--4---2---------------------------------------------|
D|--4--4----4--4--4-----4--4--4---4--4--4---2---------------------------------------------|

  Gtr. 2
e|----------------------------------------------------------------------------------------|
B|----------------------------------------------------------------------------------------|
G|-14-13-11-13-14-13-11-13-14-13-11-13-14-13-11-13----------------------------------------|
D|----------------------------------------------------------------------------------------|
A|----------------------------------------------------------------------------------------|
D|----------------------------------------------------------------------------------------|


  Gtr. 1
e|----------------------------------------------------------------------------------------|
B|----------------------------------------------------------------------------------------|
G|----------------------------------------------------------------------------------------|
D|--4--4----4--4--4-----4--4--4---4--4--4---2---------------------------------------------|
A|--4--4----4--4--4-----4--4--4---4--4--4---2---------------------------------------------|
D|--4--4----4--4--4-----4--4--4---4--4--4---2---------------------------------------------|

  Gtr. 2
e|----------------------------------------------------------------------------------------|
B|----------------------------------------------------------------------------------------|
G|-14-13-11-13-14-13-11-13-14-13-11-13-14-13-11-13----------------------------------------|
D|----------------------------------------------------------------------------------------|
A|----------------------------------------------------------------------------------------|
D|----------------------------------------------------------------------------------------|


Gtr. 1
e|----------------------------------------------------------------------------------------|
B|----------------------------------------------------------------------------------------|
G|----------------------------------------------------------------------------------------|
D|--4--4----4--4--4-----4--4--4---4--4--4---2---------------------------------------------|
A|--4--4----4--4--4-----4--4--4---4--4--4---2---------------------------------------------|
D|--4--4----4--4--4-----4--4--4---4--4--4---2---------------------------------------------|

  Gtr. 2
e|----------------------------------------------------------------------------------------|
B|----------------------------------------------------------------------------------------|
G|-14-13-11-13-14-13-11-13-14-13-11-13-14-13-11-13----------------------------------------|
D|----------------------------------------------------------------------------------------|
A|----------------------------------------------------------------------------------------|
D|----------------------------------------------------------------------------------------|


  Gtr. 1
e|----------------------------------------------------------------------------------------|
B|----------------------------------------------------------------------------------------|
G|----------------------------------------------------------------------------------------|
D|-0~-------------------------------------------------------------------------------------|
A|-0~-------------------------------------------------------------------------------------|
D|-0~-------------------------------------------------------------------------------------|

  Gtr. 2
e|----------------------------------------------------------------------------------------|
B|-12~------------------------------------------------------------------------------------|
G|-14b~-----------------------------------------------------------------------------------|
D|----------------------------------------------------------------------------------------|
A|----------------------------------------------------------------------------------------|
D|----------------------------------------------------------------------------------------|

End ;)

===============================================================================
Добавлено: 17.03.2012
Другие материалы по этой песне:

Страница создана 17.03.2012
http://primanota.ru/anberlin/reclusion-chords.htm
Привет, Гость.
Предлагаем пройти революционный курс по гитаре.
Подарок от PrimaNota.Ru, забирай!