PrimaNota.ru - самый крупный в мире бесплатный архив песенных текстов, аккордов, табулатур и нот


Anberlin - No Love To Speak - аккорды и текст, видео

Регистрация Запомнить меня
Войти через:  Facebook Google Twitter Vk Yandex Mail.ru

Anberlin - No Love To Speak - аккорды и текст, видео

Печатать
Просмотров: 113
Уроки эстрадного вокала в Санкт-Петербурге
No Love To Speak
Anberlin
Anberlin - No love to speak

CAPO II

Intro: F#m - A - E

e|---------------------------------------------------------------------------|
B|---------------------------7-----------------------------------------------|
G|----------8--6---------------8------8--------------8-----------------------|
D|----6--9----------9--11----------------9--11----------9--6-----------------|
A|-----------------(0)-------------------------------------------------------|
E|(2)------------------------------(0)-----------(0)-------------------------|

F#m           A         E 
     I'm so tired of running
                        F#m
Chasing you into the ground
A         E
Wanted attention
                       F#m
You gave me warning instead
A                        E
Affection warranted but not at your expense
F#m         A
Less than expected
E
But not at your address
D
Oh Sweetheart
I'm tired
I'm tired
D        A        E
I'm tired of trying


F#m     A     E
Oh oh
       Bm
Now I've got no love to speak
F#m     A     E
Oh oh
       Bm                      F#m
And I've got no worlds beside me
      A                  E               Bm      
You had your chance and now my heart is full
F#m     A     E
Oh oh
       Bm
Now I've got no love to speak

F#m  A              E
In tomorrow will you there
                   F#m
Regret your yesterday
    A            E
In sorrow I'll wait here
                         F#m
To hear all you have to say
   A              E
Attention granted but just a few years too late
F#m        A            E
I'll move beyond a kiss

A kiss and charade
F#m
I miss you
I missed you
                  A
I don't miss you at all

F#m     A     E
Oh oh
       Bm
Now I've got no love to speak
F#m     A     E
Oh oh
       Bm                      F#m
And I've got no worlds beside me
      A                  E               Bm      
You had your chance and now my heart is full
F#m     A     E
Oh oh
       Bm
Now I've got no love to speak

F#m (16 times) (or F#m - A - E - Bm 4 times)

F#m     A     E
Oh oh
       Bm
Now I've got no love to speak
F#m     A     E
Oh oh
       Bm                      F#m
And I've got no worlds beside me
      A                  E               Bm      
You had your chance and now my heart is full
F#m     A     E
Oh oh
       Bm                 F#m (hit once)
Now I've got no love to speak

A - E - Bm- F#m - A - E - Bm - F#m - A - E - Bm

Outro

e|---------------------------------------------------------------------------|
B|---------------------------7-----------------------------------------------|
G|----------8--6---------------8------8--------------8-----------------------|
D|----6--9----------9--11----------------9--11----------9--6-----------------|
A|-----------------(0)-------------------------------------------------------|
E|(2)------------------------------(0)-----------(9)-------------------------|

Добавлено: 17.07.2015
Вам также может быть интересно:
Другие материалы по этой песне:

Страница создана 17.07.2015
http://primanota.ru/anberlin/no-love-to-speak-chords.htm
Привет, Гость.
Предлагаем пройти революционный курс по гитаре.
Подарок от PrimaNota.Ru, забирай!