PrimaNota.ru - самый крупный в мире бесплатный архив песенных текстов, аккордов, табулатур и нот


Anberlin - Desires - текст песни, таба, видео

Регистрация Запомнить меня
Войти через:  Facebook Google Twitter Vk Yandex Mail.ru

Anberlin - Desires - текст песни, таба, видео

Печатать
Просмотров: 139
Уроки эстрадного вокала в Санкт-Петербурге
-------------------------------------------------------------------------------
                            Desires - Anberlin
-------------------------------------------------------------------------------
Tabbed by: Solidjake
Tuning: Drop D

Hello this is my first tab, I realized there were none for this song and I love it
so I decided to put this up, enjoy :)
The solo bit is missing, I'll get on adding that later, but have this for now 
because there are no tabs.


(/) Slide Up  (\) Slide Down  (h) Hammer On  (p) Pull Off  (b) Bend (r) Release 
(v) Vibrato (~) Ring

Intro (You might want to strum this up and down)

E|-------------------------------------------------------------------------------------|
B|-------------------------------------------------------------------------------------|
G|-------------------------------------------------------------------------10-10-10-10-|
D|-0-10-12-0-10-12-0-10-12-0-10-12-0-10-12-0-10-12-0-10-12-0-10-12-0-10-12-10-10-10-10-|
A|-0-10-12-0-10-12-0-10-12-0-10-12-0-10-12-0-10-12-0-10-12-0-10-12-0-10-12-8--8--8--8--|
D|-0-10-12-0-10-12-0-10-12-0-10-12-0-10-12-0-10-12-0-10-12-0-10-12-0-10-12-------------|


-----------------------------------------------------------------------------------------------|
-----------------------------------------------------------------------------------------------| X2
-----------------------------------------------------------------------------------------------|
-0-10-12-0-10-12-0-10-12-0-10-12-0-10-12-0-10-12-0-10-12-0-10-12-0-10-12-3-3-3-3-8-8-8-8-(0)~--|
-0-10-12-0-10-12-0-10-12-0-10-12-0-10-12-0-10-12-0-10-12-0-10-12-0-10-12-3-3-3-3-8-8-8-8-(0)~--|
-0-10-12-0-10-12-0-10-12-0-10-12-0-10-12-0-10-12-0-10-12-0-10-12-0-10-12-3-3-3-3-8-8-8-8-(0)~--|
<-------|Second Time - let ring [and who are you to be the death of me?]


Verse (Bass adapted to guitar)

E|--------------------------------------------------------------------------------------------------|
B|--------------------------------------------------------------------------------------------------|
G|--------------------------------------------------------------------------------------------------|
D|--------------------------------------------------------------------------------------------------|
A|-----------5--------5--7-----------7--------7--3-----------3--------3--1-----------1--------1--0--|
D|--0--0--0-----0--0--------0--0--0-----0--0--------0--0--0-----0--0--------0--0--0-----0--0--------|

--------------------------------------------------------------------------------------------------|
--------------------------------------------------------------------------------------------------|
--------------------------------------------------------------------------------------------------|
-----------0--------0--3-----------3--------0--3-----------3--------3--0-----------0--------0-----|
--1--1--1-----1--1--------1--1--1-----1--1--------1--1--1-----1--1--------1--1--1-----1--1-----0--|
--------------------------------------------------------------------------------------------------|


Pre Chorus

E|--------------------------------------------------------------------------------------------------|
B|--------------------------------------------------------------------------------------------------|
G|--7--7-x-7-x-7~---7--7-x-7-x-7~---5--5-x-5-x-5~---5--5-x-5-x-5~---3--3-x-3-x-3~---3--3-x-3-x-3~---|
D|--7--7-x-7-x-5~---7--7-x-7-x-7~---5--5-x-5-x-5~---5--5-x-5-x-5~---3--3-x-3-x-3~---3--3-x-3-x-3~---|
A|--5--5-x-5-x-5~---5--5-x-5-x-5~---3--3-x-3-x-3~---3--3-x-3-x-3~---1--1-x-1-x-1~---1--1-x-3-x-1~---|
D|--------------------------------------------------------------------------------------------------|

--------------------------------8-|
--------------------------------8-|
--5--5-x-5-x-5~---5--5-x-5-x-5--8-|
--5--5-x-5-x-5~---5--5-x-5-x-5----|
--3--3-x-3-x-3~---3--3-x-3-x-3----|
----------------------------------|


Chorus (Up/Down strums again)

E|-------------------------------------------------------------------------------------|
B|-------------------------------------------------------------------------------------|
G|-------------------------------------------------------------------------10-10-10-10-|
D|-0-10-12-0-10-12-0-10-12-0-10-12-0-10-12-0-10-12-0-10-12-0-10-12-0-10-12-10-10-10-10-|
A|-0-10-12-0-10-12-0-10-12-0-10-12-0-10-12-0-10-12-0-10-12-0-10-12-0-10-12-8--8--8--8--|
D|-0-10-12-0-10-12-0-10-12-0-10-12-0-10-12-0-10-12-0-10-12-0-10-12-0-10-12-------------|


-----------------------------------------------------------------------------------------|
-----------------------------------------------------------------------------------------|
-----------------------------------------------------------------------------------------|
-0-10-12-0-10-12-0-10-12-0-10-12-0-10-12-0-10-12-0-10-12-0-10-12-0-10-12-3-3-3-3-8-8-8-8-|
-0-10-12-0-10-12-0-10-12-0-10-12-0-10-12-0-10-12-0-10-12-0-10-12-0-10-12-3-3-3-3-8-8-8-8-|
-0-10-12-0-10-12-0-10-12-0-10-12-0-10-12-0-10-12-0-10-12-0-10-12-0-10-12-3-3-3-3-8-8-8-8-|


E|--------------------------------------------------------------------|
B|--------------------------------------------------------------------|
G|-------------------------------------------------------10-10-10-10--|
D|-0-6-8-0-6-8-0-6-8-0-6-8-0-6-8-0-6-8-0-6-8-0-6-8-0-6-8-10-10-10-10--|
A|-0-6-8-0-6-8-0-6-8-0-6-8-0-6-8-0-6-8-0-6-8-0-6-8-0-6-8-8--8--8--8---|
D|-0-6-8-0-6-8-0-6-8-0-6-8-0-6-8-0-6-8-0-6-8-0-6-8-0-6-8--------------|


------------------------------------------------------------------------------------|
------------------------------------------------------------------------------------|
------------------------------------------------------------------------------------|
-0-8-10-0-8-10-0-8-10-0-8-10-0-8-10-0-8-10-0-8-10-0-8-10-0-8-10-8-8-8-8-3-3-3-3-0~--|
-0-8-10-0-8-10-0-8-10-0-8-10-0-8-10-0-8-10-0-8-10-0-8-10-0-8-10-8-8-8-8-3-3-3-3-0~--|
-0-8-10-0-8-10-0-8-10-0-8-10-0-8-10-0-8-10-0-8-10-0-8-10-0-8-10-8-8-8-8-3-3-3-3-0~--|
 <- Once again, let ring through

Verse
Pre Chorus
Chorus

Then would be the Solo and Bridge, ending with chorus.
Добавлено: 13.06.2013
Другие материалы по этой песне:
  • Аккорды и текст

Страница создана 13.06.2013
http://primanota.ru/anberlin/desires-chords.htm
Привет, Гость.
Предлагаем пройти революционный курс по гитаре.
Подарок от PrimaNota.Ru, забирай!