PrimaNota.ru - самый крупный в мире бесплатный архив песенных текстов, аккордов, табулатур и нот


Anberlin - Audrey Start The Revolution - текст песни, таба, видео

Регистрация Запомнить меня
Войти через:  Facebook Google Twitter Vk Yandex Mail.ru

Anberlin - Audrey Start The Revolution - текст песни, таба, видео

Печатать
Просмотров: 219
-------------------------------------------------------------------------------
                 AUDREY, START THE REVOLUTION - Anberlin
-------------------------------------------------------------------------------
Tabbed by: Anodyneguitarist
Email:

Tuning: Drop D

Intro
e|------------------------------|
B|------------------------------|
G|------------------------------|
d|-10-----7-----10-----7--------| x4
A|----7-8---8-7----7-8---10-8-7-|
D|------------------------------|

Pre-Verse
e|-------------------------------|
B|-------------------------------|
G|-----10-10-----10-10-----10-10-|
d|-------------------------------|
A|-----8--8------8--8------8--8--|
D|-0-0-------0-0-------0-0-------|

Verse
e|-------------------------------------------------|
B|-------------------------------------------------|
G|-10----10----10----10----12----12----12----12----|
d|----10----10----10----10----12----12----12----12-|
A|-------------------------------------------------|
D|-------------------------------------------------|

e|-------------------------------------------|
B|-------------------------------------------|
G|-12----12----12----12----10----10----10----|
d|----10----10----10----10----10----10----10-| x2
A|-------------------------------------------|
D|-------------------------------------------|

e|-------------------------------|
B|-------------------------------|
G|-----10-10-----10-10-----10-10-|
d|-------------------------------|
A|-----8--8------8--8------8--8--|
D|-0-0-------0-0-------0-0-------|

e|-------------------------------------------------|
B|-------------------------------------------------|
G|-10----10----10----10----12----12----12----12----|
d|----10----10----10----10----12----12----12----12-|
A|-------------------------------------------------|
D|-------------------------------------------------|

e|-------------------------------------------|
B|-------------------------------------------|
G|-12----12----12----12----10----10----10----|
d|----10----10----10----10----10----10----10-| x2
A|-------------------------------------------|
D|-------------------------------------------|

e|-------------------------------|
B|-------------------------------|
G|-----10-10-----10-10-----10-10-|
d|-------------------------------|
A|-----8--8------8--8------8--8--|
D|-0-0-------0-0-------0-0-------|

Pre-Chorus
e|-----------|
B|-----------|
G|-7-9-10-12-|
d|-7-9-10-12-|
A|-5-7-8--10-|
D|-----------|
  pm........

Chorus
e|-------------|
B|-------------|
G|-10-12-12-10-|
d|-10-12-10-8--| x3
A|-8--10-10-8--|
D|-8--10-10-8--|

Bridge
e|--------|
B|--------|
G|--------|
d|-3-10-8-|
A|-3-10-8-|
D|-3-10-8-|
Добавлено: 12.06.2012
Другие материалы по этой песне:
  • Аккорды и текст

Страница создана 12.06.2012
http://primanota.ru/anberlin/audrey-start-the-revolution-chords.htm
Привет, Гость.
Предлагаем пройти революционный курс по гитаре.
Подарок от PrimaNota.Ru, забирай!