PrimaNota.ru - самый крупный в мире бесплатный архив песенных текстов, аккордов, табулатур и нот


Anberlin - A Whisper A Clamor - текст песни, таба, бас-таба, видео

Регистрация Запомнить меня
Войти через:  Facebook Google Twitter Vk Yandex Mail.ru

Anberlin - A Whisper A Clamor - текст песни, таба, бас-таба, видео

Печатать
Просмотров: 359
I love this song, and I've the majority of it tabbed. There's a couple of notes in the 
down that I'm not sure of, so I marked them with question marks. You'll figure them out, 
a smart bunch of people.

Be sure of the weird tuning:
CGCFAD

Intro Riff:
D||----------------------------|---------------------------------|
A||----------------------------|---------------------------------|
F||--------------------10--10--|--10--10--10--10--10b----10--10--|
C||--0--0--0--0--0--0----------|---------------------------------|
G||----------------------------|---------------------------------|
C||----------------------------|---------------------------------|


Progression for Chorus Riff:
-----------------------|
-----------------------|
--7----10----5----5----|
--7----10----5----5----|
--5----8-----3----3----|
-----------------------|

Verse Riff:
|-----------------------------|--------------------------|
|-----------------------------|--------------------------|
|-----------10--10--10--9--9--|--9--5--5--5--0--0--------|
|--0--0--0--------------------|--------------------3--3--|
|-----------------------------|--------------------------|
|-----------------------------|--------------------------|

Bridge riff:

|--?--?---------|--?--?--------|--?--?--------|--?--?--------|
|--?--?---------|--?--?--------|--?--?--------|--?--?--------|
|--?--?--11--9--|--?--?--7--5--|--?--?--7--5--|--?--?--0--2--|
|--?--?---------|--?--?--------|--?--?--------|--?--?--------|
|--?--?---------|--?--?--------|--?--?--------|--?--?--------|
|--?--?---------|--?--?--------|--?--?--------|--?--?--------|

|--?--?---------|--?--?--------|--?--?--------|--?--?--------|
|--?--?---------|--?--?--------|--?--?--------|--?--?--------|
|--?--?--11--9--|--?--?--7--5--|--?--?--7--5--|--?--?--0--3--|
|--?--?---------|--?--?--------|--?--?--------|--?--?--------|
|--?--?---------|--?--?--------|--?--?--------|--?--?--------|
|--?--?---------|--?--?--------|--?--?--------|--?--?--------|

On "its not the lies..."  in the bridge, as it starts to build and goes to full chords, 
this progression:

--------------------|
--------------------|
--7----3----5----5--|
--7----3----5----5--|
--5----1----3----3--|
--------------------|


Song order:

Intro Riff X2
Chorus Riff X2
Verse Riff X8
Intro Riff X1
Chorus Riff X4
Verse Riff X8
Chorus Riff X6
Bridge Riff X4
Bridge Strum Riff X4
Chorus Riff X2
Bridge Riff X2
Добавлено: 23.07.2012
Другие материалы по этой песне:
  • Аккорды и текст

Страница создана 26.02.2012
http://primanota.ru/anberlin/a-whisper-a-clamor-chords.htm
Привет, Гость.
Предлагаем пройти революционный курс по гитаре.
Подарок от PrimaNota.Ru, забирай!