PrimaNota.ru - самый крупный в мире бесплатный архив песенных текстов, аккордов, табулатур и нот


Anavae - Storm Chaser - таба, видео

Регистрация Запомнить меня
Войти через:  Facebook Google Twitter Vk Yandex Mail.ru

Anavae - Storm Chaser - таба, видео

Печатать
Просмотров: 62
Guitar 1: Josh

D#|---------------------------------|---------------------------------|---------------------------------|
A#|---------------------------------|---------------------------------|---------------------------------|
F#|---------------------------------|---------------------------------|---------------------------------|
C#|---------------------------------|---------------------------------|---------------------------------|
G#|---------------------------------|---------------------------------|---------------------------------|
C#|-7---7---7---7---7---7---7---7---|-7---7---7---7---7---7---7---7---|-7---7---7---7---7---7---7---7---|


D#|------------------------------|---------------------------------|---------------------------------|
A#|------------------------------|---------------------------------|---------------------------------|
F#|------------------------------|---------------------------------|---------------------------------|
C#|------------------------------|---------------------------------|---------------------------------|
G#|------------------------------|---------------------------------|---------------------------------|
C#|-7---7---7---7---3---5---5----|-7---7---7---7---7---5---7---10--|-----5---5---5---5---3---3---3---|


D#|---------------------------------|---------------------------------|---------------------------------|
A#|---------------------------------|---------------------------------|---------------------------------|
F#|---------------------------------|---------------------------------|---------------------------------|
C#|---------------------------------|---------------------------------|---------------------------------|
G#|---------------------------------|---------------------------------|---------------------------------|
C#|-7---7---7---7---7---5---7---10--|-----5---5---5---5---3---3---3---|-7---7---7---7---7---5---7---10--|


D#|---------------------------------|---------------------------------|---------------------------------|
A#|---------------------------------|---------------------------------|---------------------------------|
F#|---------------------------------|---------------------------------|---------------------------------|
C#|---------------------------------|---------------------------------|---------------------------------|
G#|---------------------------------|---------------------------------|---------------------------------|
C#|-----5---5---5---5---3---3---3---|-7---7---7---7---7---5---7---10--|-----3---3---3---3---5---5---5---|


D#|---------------------------------|---------------------------------|---------------------------------|
A#|---------------------------------|---------------------------------|---------------------------------|
F#|---------------------------------|---------------------------------|---------------------------------|
C#|---------------------------------|---------------------------------|---------------------------------|
G#|---------------------------------|---------------------------------|---------------------------------|
C#|-7---7---7---7---7---5---7---10--|-----5---5---5---5---3---3---3---|-7---7---7---7---7---5---7---10--|


D#|---------------------------------|---------------------------------|---------------------------------|
A#|---------------------------------|---------------------------------|---------------------------------|
F#|---------------------------------|---------------------------------|---------------------------------|
C#|---------------------------------|---------------------------------|---------------------------------|
G#|---------------------------------|---------------------------------|---------------------------------|
C#|-----5---5---5---5---3---3---3---|-7---7---7---7---7---5---7---10--|-----5---5---5---5---3---3---3---|


D#|---------------------------------|---------------------------------|---------------------------------|
A#|---------------------------------|---------------------------------|---------------------------------|
F#|---------------------------------|---------------------------------|---------------------------------|
C#|---------------------------------|---------------------------------|---------5-------5---5---5---5---|
G#|---------------------------------|---------------------------------|-3---3---3---3---3---3---3---3---|
C#|-7---7---7---7---7---5---7---10--|-----3---3---3---3---5---5---5---|-3---3---3---3---3---3---3---3---|


D#|---------------------------------|---------------------------------|---------------------------------|
A#|---------------------------------|---------------------------------|---------------------------------|
F#|---------------------------------|---------------------------------|---------------------------------|
C#|-5---5---5-------5---5---5---5---|-5---5---5---5---5---5---5---5---|-5---5---5---5---5---5---5---5---|
G#|-3---3---3---3---3---3---3---3---|-5---5---5---5---5---5---5---5---|-5---5---5---5---5---5---5---5---|
C#|-3---3---3---3---3---3---3---3---|-5---5---5---5---5---5---5---5---|-5---5---5---5---5---5---5---5---|


D#|---------------------------------|---------------------------------|---------------------------------|
A#|---------------------------------|---------------------------------|---------------------------------|
F#|---------------------------------|---------------------------------|---------------------------------|
C#|-7---7---7---7---7---7---7---7---|-7---7---7---7---7---7---7---7---|-10--10--10--10--10--10--10--10--|
G#|-7---7---7---7---7---7---7---7---|-7---7---7---7---7---7---7---7---|-10--10--10--10--10--10--10--10--|
C#|-7---7---7---7---7---7---7---7---|-7---7---7---7---7---7---7---7---|-10--10--10--10--10--10--10--10--|


D#|---------------------------------|---------------------------------|---------------------------------|
A#|---------------------------------|---------------------------------|---------------------------------|
F#|---------------------------------|---------------------------------|---------------------------------|
C#|-10--10--10--10--10--10--10--10--|-5---5---5---5---5---5---5---5---|-5---5---5---5---5---5---5---5---|
G#|-10--10--10--10--10--10--10--10--|-3---3---3---3---3---3---3---3---|-3---3---3---3---3---3---3---3---|
C#|-10--10--10--10--10--10--10--10--|-3---3---3---3---3---3---3---3---|-3---3---3---3---3---3---3---3---|


D#|---------------------------------|---------------------------------|---------------------------------|
A#|---------------------------------|---------------------------------|---------------------------------|
F#|---------------------------------|---------------------5---5-------|---------------------------------|
C#|-5---5---5---5---5---5---5---5---|-5---2---2---2---2---5---5---5---|-7---7---7---7---7---5---7---10--|
G#|-5---5---5---5---5---5---5---5---|-5---2---2---2---2---3---3---5---|-7---7---7---7---7---5---7---10--|
C#|-5---5---5---5---5---5---5---5---|-5---2---2---2---2-----------5---|-7---7---7---7---7---5---7---10--|


D#|---------------------------------|-----------------------------0---|-0------------------|
A#|---------------------------------|-----------------------------0---|-0------------------|
F#|---------------------------------|-----------------------------5---|-5------------------|
C#|-10--5---5---5---5---3---3---3---|-7---7---7---7---7---5---7---0---|-0-----3---5---5----|
G#|-10--5---5---5---5---3---3---3---|-7---7---7---7---7---5---7---0---|-0-----3---5---5----|
C#|-10--5---5---5---5---3---3---3---|-7---7---7---7---7---5---7---0---|-0-----3---5---5----|


D#|---------------------------------|---------------------------------|---------------------------------|
A#|---------------------------------|---------------------------------|---------------------------------|
F#|---------------------------------|---------------------------------|---------------------------------|
C#|---------------------------------|---------------------------------|---------------------------------|
G#|---------------------------------|---------------------------------|---------------------------------|
C#|-7---7---7---7---7---5---7---10--|-----5---5---5---5---3---3---3---|-7---7---7---7---7---5---7---10--|


D#|---------------------------------|---------------------------------|---------------------------------|
A#|---------------------------------|---------------------------------|---------------------------------|
F#|---------------------------------|---------------------------------|---------------------------------|
C#|---------------------------------|---------------------------------|---------------------------------|
G#|---------------------------------|---------------------------------|---------------------------------|
C#|-----5---5---5---5---3---3---3---|-7---7---7---7---7---5---7---10--|-----5---5---5---5---3---3---3---|


D#|---------------------------------|---------------------------------|--------------------------------|
A#|---------------------------------|---------------------------------|--------------------------------|
F#|---------------------------------|---------------------------------|--------------------------------|
C#|---------------------------------|---------------------------------|-7----7-------------7-------6---|
G#|---------------------------------|---------------------------------|-7----7---7--7--7---7-------7---|
C#|-7---7---7---7---7---5---7---10--|-----3---3---3---3---5---5---5---|-7----7---7--7--7---7-------6---|


D#|------------------------------|--------------------------------|------------------------------|
A#|------------------------------|--------------------------------|------------------------------|
F#|------------------------------|--------------------------------|------------------------------|
C#|-6---6-------6----6---6---6---|-5----5-------------5-------4---|-4---4-------4----4---4---4---|
G#|-7---7---7---7----7---7---7---|-5----5---5--5--5---5-------5---|-5---5---5---5----5---5---5---|
C#|-6---6---6---6----6---6---6---|-5----5---5--5--5---5-------4---|-4---4---4---4----4---4---4---|


D#|---------------------------------|---------------------------------|---------------------------------|
A#|---------------------------------|---------------------------------|---------------------------------|
F#|---------------------------------|---------------------------------|---------------------------------|
C#|---------------------------------|---------------------------------|---------------------------------|
G#|-3---3---3---3---3---3---3---3---|-3---3---3---3---3---3---3---3---|-5---5---5---5---5---5---5---5---|
C#|-3---3---3---3---3---3---3---3---|-3---3---3---3---3---3---3---3---|-5---5---5---5---5---5---5---5---|


D#|---------------------------------|---------------------------------|---------------------------------|
A#|---------------------------------|---------------------------------|---------------------------------|
F#|---------------------------------|---------------------------------|---------------------------------|
C#|-5---5---5---5---5---5---5---5---|-7---7---7---7---7---7---7---7---|-7---7---7---7---7---7---7---7---|
G#|-5---5---5---5---5---5---5---5---|-7---7---7---7---7---7---7---7---|-7---7---7---7---7---7---7---7---|
C#|-5---5---5---5---5---5---5---5---|-7---7---7---7---7---7---7---7---|-7---7---7---7---7---7---7---7---|


D#|---------------------------------|---------------------------------|---------------------------------|
A#|---------------------------------|---------------------------------|---------------------------------|
F#|---------------------------------|---------------------------------|---------------------------------|
C#|-10--10--10--10--10--10--10--10--|-10--10--10--10--10--10--10--10--|-5---5---5---5---5---5---5---5---|
G#|-10--10--10--10--10--10--10--10--|-10--10--10--10--10--10--10--10--|-3---3---3---3---3---3---3---3---|
C#|-10--10--10--10--10--10--10--10--|-10--10--10--10--10--10--10--10--|-3---3---3---3---3---3---3---3---|


D#|---------------------------------|---------------------------------|---------------------------------|
A#|---------------------------------|---------------------------------|---------------------------------|
F#|---------------------------------|---------------------------------|---------------------5---5-------|
C#|-5---5---5---5---5---5---5---5---|-5---5---5---5---5---5---5---5---|-5---2---2---2---2---5---5---5---|
G#|-3---3---3---3---3---3---3---3---|-5---5---5---5---5---5---5---5---|-5---2---2---2---2---3---3---5---|
C#|-3---3---3---3---3---3---3---3---|-5---5---5---5---5---5---5---5---|-5---2---2---2---2-----------5---|


D#|---------------------------------|---------------------------------|---------------------------------|
A#|---------------------------------|---------------------------------|---------------------------------|
F#|---------------------------------|---------------------------------|---------------------------------|
C#|-3---3---3---3---3---3---3---3---|-3---3---3---3---3---3---3---3---|-5---5---5---5---5---5---5---5---|
G#|-3---3---3---3---3---3---3---3---|-3---3---3---3---3---3---3---3---|-5---5---5---5---5---5---5---5---|
C#|-3---3---3---3---3---3---3---3---|-3---3---3---3---3---3---3---3---|-5---5---5---5---5---5---5---5---|


D#|---------------------------------|---------------------------------|---------------------------------|
A#|---------------------------------|---------------------------------|---------------------------------|
F#|---------------------------------|---------------------------------|---------------------------------|
C#|-5---5---5---5---5---5---5---5---|-2---2---2---2---2---2---2---2---|-2---2---2---2---2---2---2---2---|
G#|-5---5---5---5---5---5---5---5---|-2---2---2---2---2---2---2---2---|-2---2---2---2---2---2---2---2---|
C#|-5---5---5---5---5---5---5---5---|-2---2---2---2---2---2---2---2---|-2---2---2---2---2---2---2---2---|


D#|---------------------------------|---------------------------------|--------|--------|
A#|---------------------------------|---------------------------------|--------|--------|
F#|---------------------------------|---------------------------------|--------|--------|
C#|-3---3---3---3---3---3---3---3---|-5---5---5---5---5---5---5---5---|-7------|-7------|
G#|-3---3---3---3---3---3---3---3---|-5---5---5---5---5---5---5---5---|-7------|-7------|
C#|-3---3---3---3---3---3---3---3---|-5---5---5---5---5---5---5---5---|-7------|-7------|


D#|--------|--------|--------|--------|--------|--------|---------------------------------|
A#|--------|--------|--------|--------|--------|--------|---------------------------------|
F#|--------|--------|--------|--------|--------|--------|---------------------------------|
C#|-7------|-7------|--------|--------|--------|--------|---------------------------------|
G#|-7------|-7------|--------|--------|--------|--------|-7---7---7---7---7---7---7---7---|
C#|-7------|-7------|--------|--------|--------|--------|-7---7---7---7---7---7---7---7---|


D#|---------------------------------|---------------------------------|---------------------------------|
A#|---------------------------------|---------------------------------|---------------------------------|
F#|---------------------------------|---------------------------------|---------------------------------|
C#|---------------------------------|---------------------------------|---------------------------------|
G#|-7---7---7---7---7---7---7---7---|-7---7---7---7---7---7---7---7---|-7---7---7---7---7---7---7---7---|
C#|-7---7---7---7---7---7---7---7---|-7---7---7---7---7---7---7---7---|-7---7---7---7---7---7---7---7---|


D#|---------------------------------|---------------------------------|---------------------------------|
A#|---------------------------------|---------------------------------|---------------------------------|
F#|---------------------------------|---------------------------------|---------------------------------|
C#|---------------------------------|---------------------------------|---------------------------------|
G#|-5---5---5---5---5---5---5---5---|-5---5---5---5---5---5---5---5---|-3---3---3---3---3---3---3---3---|
C#|-5---5---5---5---5---5---5---5---|-5---5---5---5---5---5---5---5---|-3---3---3---3---3---3---3---3---|


D#|---------------------------------|--------|-----------------0-----|---------------------------------|
A#|---------------------------------|--------|-----------------0-----|---------------------------------|
F#|---------------------------------|--------|-----------------0-----|---------------------------------|
C#|-5---5---5---5---5---5---5---5---|--------|-----------------------|-7---7---7---7---7---7---7---7---|
G#|-5---5---5---5---5---5---5---5---|--------|-----------------------|-7---7---7---7---7---7---7---7---|
C#|-5---5---5---5---5---5---5---5---|--------|-----------------------|-7---7---7---7---7---7---7---7---|


D#|---------------------------------|---------------------------------|---------------------------------|
A#|---------------------------------|---------------------------------|---------------------------------|
F#|---------------------------------|---------------------------------|---------------------------------|
C#|-7---7---7---7---7---7---7---7---|-10--10--10--10--10--10--10--10--|-10--10--10--10--10--10--10--10--|
G#|-7---7---7---7---7---7---7---7---|-10--10--10--10--10--10--10--10--|-10--10--10--10--10--10--10--10--|
C#|-7---7---7---7---7---7---7---7---|-10--10--10--10--10--10--10--10--|-10--10--10--10--10--10--10--10--|


D#|---------------------------------|---------------------------------|---------------------------------|
A#|---------------------------------|---------------------------------|---------------------------------|
F#|---------------------------------|---------------------------------|---------------------------------|
C#|-5---5---5---5---5---5---5---5---|-5---5---5---5---5---5---5---5---|-5---5---5---5---5---5---5---5---|
G#|-3---3---3---3---3---3---3---3---|-3---3---3---3---3---3---3---3---|-5---5---5---5---5---5---5---5---|
C#|-3---3---3---3---3---3---3---3---|-3---3---3---3---3---3---3---3---|-5---5---5---5---5---5---5---5---|


D#|---------------------------------|---------------------------------|---------------------------------|
A#|---------------------------------|---------------------------------|---------------------------------|
F#|---------------------5---5-------|---------------------------------|---------------------------------|
C#|-5---2---2---2---2---5---5---5---|-3---3---3---3---3---3---3---3---|-3---3---3---3---3---3---3---3---|
G#|-5---2---2---2---2---3---3---5---|-3---3---3---3---3---3---3---3---|-3---3---3---3---3---3---3---3---|
C#|-5---2---2---2---2-----------5---|-3---3---3---3---3---3---3---3---|-3---3---3---3---3---3---3---3---|


D#|---------------------------------|---------------------------------|---------------------------------|
A#|---------------------------------|---------------------------------|---------------------------------|
F#|---------------------------------|---------------------------------|---------------------------------|
C#|-5---5---5---5---5---5---5---5---|-5---5---5---5---5---5---5---5---|-2---2---2---2---2---2---2---2---|
G#|-5---5---5---5---5---5---5---5---|-5---5---5---5---5---5---5---5---|-2---2---2---2---2---2---2---2---|
C#|-5---5---5---5---5---5---5---5---|-5---5---5---5---5---5---5---5---|-2---2---2---2---2---2---2---2---|


D#|---------------------------------|---------------------------------|---------------------------------|
A#|---------------------------------|---------------------------------|---------------------------------|
F#|---------------------------------|---------------------------------|---------------------------------|
C#|-2---2---2---2---2---2---2---2---|-3---3---3---3---3---3---3---3---|-5---5---5---5---5---5---5---5---|
G#|-2---2---2---2---2---2---2---2---|-3---3---3---3---3---3---3---3---|-5---5---5---5---5---5---5---5---|
C#|-2---2---2---2---2---2---2---2---|-3---3---3---3---3---3---3---3---|-5---5---5---5---5---5---5---5---|


D#|---------------------------------|---------------------------------|-----------------------------0---|
A#|---------------------------------|---------------------------------|-----------------------------0---|
F#|---------------------------------|---------------------------------|-----------------------------5---|
C#|-7---7---7---7---7---5---7---10--|-10--5---5---5---5---3---3---3---|-7---7---7---7---7---5---7---0---|
G#|-7---7---7---7---7---5---7---10--|-10--5---5---5---5---3---3---3---|-7---7---7---7---7---5---7---0---|
C#|-7---7---7---7---7---5---7---10--|-10--5---5---5---5---3---3---3---|-7---7---7---7---7---5---7---0---|


D#|-0------|
A#|-0------|
F#|-5------|
C#|-0------|
G#|-0------|
C#|-0------|


Guitar 2: Pearce

D#|--------|--------|--------|--------|---------------------------------|---------------------------------|
A#|--------|--------|--------|--------|---------------------------------|---------------------------------|
F#|--------|--------|--------|--------|---------------------------------|---------------------------------|
C#|--------|--------|--------|--------|---------------------------------|---------------------------------|
G#|--------|--------|--------|--------|---------------------------------|---------------------------------|
C#|--------|--------|--------|--------|-7---7---7---7---7---5---7---10--|-----5---5---5---5---3---3---3---|


D#|---------------------------------|---------------------------------|---------------------------------|
A#|---------------------------------|---------------------------------|---------------------------------|
F#|---------------------------------|---------------------------------|---------------------------------|
C#|---------------------------------|---------------------------------|---------------------------------|
G#|---------------------------------|---------------------------------|---------------------------------|
C#|-7---7---7---7---7---5---7---10--|-----5---5---5---5---3---3---3---|-7---7---7---7---7---5---7---10--|


D#|---------------------------------|---------------------------------|---------------------------------|
A#|---------------------------------|---------------------------------|---------------------------------|
F#|---------------------------------|---------------------------------|---------------------------------|
C#|---------------------------------|---------------------------------|---------------------------------|
G#|---------------------------------|---------------------------------|---------------------------------|
C#|-----5---5---5---5---3---3---3---|-7---7---7---7---7---5---7---10--|-----3---3---3---3---5---5---5---|


D#|---------------------------------|---------------------------------|---------------------------------|
A#|---------------------------------|---------------------------------|---------------------------------|
F#|---------------------------------|---------------------------------|---------------------------------|
C#|---------------------------------|---------------------------------|---------------------------------|
G#|---------------------------------|---------------------------------|---------------------------------|
C#|-7---7---7---7---7---5---7---10--|-----5---5---5---5---3---3---3---|-7---7---7---7---7---5---7---10--|


D#|---------------------------------|---------------------------------|---------------------------------|
A#|---------------------------------|---------------------------------|---------------------------------|
F#|---------------------------------|---------------------------------|---------------------------------|
C#|---------------------------------|---------------------------------|---------------------------------|
G#|---------------------------------|---------------------------------|---------------------------------|
C#|-----5---5---5---5---3---3---3---|-7---7---7---7---7---5---7---10--|-----5---5---5---5---3---3---3---|


D#|---------------------------------|---------------------------------|---------------------------------|
A#|---------------------------------|---------------------------------|---------------------------------|
F#|---------------------------------|---------------------------------|---------------------------------|
C#|---------------------------------|---------------------------------|---------------------------------|
G#|---------------------------------|---------------------------------|---------------------------------|
C#|-7---7---7---7---7---5---7---10--|-----3---3---3---3---5---5---5---|-3---3---3---3---3---3---3---3---|


D#|---------------------------------|---------------------------------|---------------------------------|
A#|---------------------------------|---------------------------------|---------------------------------|
F#|---------------------------------|---------------------------------|---------------------------------|
C#|---------------------------------|---------------------------------|---------------------------------|
G#|---------------------------------|---------------------------------|---------------------------------|
C#|-3---3---3---3---3---3---3---3---|-5---5---5---5---5---5---5---5---|-5---5---5---5---5---5---5---5---|


D#|---------------------------------|---------------------------------|---------------------------------|
A#|---------------------------------|---------------------------------|---------------------------------|
F#|---------------------------------|---------------------------------|---------------------------------|
C#|---------------------------------|---------------------------------|---------------------------------|
G#|---------------------------------|---------------------------------|---------------------------------|
C#|-7---7---7---7---7---7---7---7---|-7---7---7---7---7---7---7---7---|-10--10--10--10--10--10--10--10--|


D#|---------------------------------|---------------------------------|---------------------------------|
A#|---------------------------------|---------------------------------|---------------------------------|
F#|---------------------------------|---------------------------------|---------------------------------|
C#|---------------------------------|---------------------------------|---------------------------------|
G#|---------------------------------|---------------------------------|---------------------------------|
C#|-10--10--10--10--10--10--10--10--|-3---3---3---3---3---3---3---3---|-3---3---3---3---3---3---3---3---|


D#|---------------------------------|---------------------------------|---------------------------------|
A#|---------------------------------|---------------------------------|---------------------------------|
F#|---------------------------------|---------------------------------|---------------------------------|
C#|---------------------------------|---------------------------------|---------------------------------|
G#|---------------------------------|---------------------3---3-------|---------------------------------|
C#|-5---5---5---5---5---5---5---5---|-5---2---2---2---2-----------5---|-7---7---7---7---7---5---7---10--|


D#|---------------------------------|---------------------------------|--------------------|
A#|---------------------------------|---------------------------------|--------------------|
F#|---------------------------------|---------------------------------|--------------------|
C#|---------------------------------|---------------------------------|--------------------|
G#|---------------------------------|---------------------------------|--------------------|
C#|-10--5---5---5---5---3---3---3---|-7---7---7---7---7---5---7---0---|-0-----3---5---5----|


D#|---------------------------------|---------------------------------|---------------------------------|
A#|---------------------------------|---------------------------------|---------------------------------|
F#|---------------------------------|---------------------------------|---------------------------------|
C#|---------------------------------|---------------------------------|---------------------------------|
G#|---------------------------------|---------------------------------|---------------------------------|
C#|-7---7---7---7---7---5---7---10--|-----5---5---5---5---3---3---3---|-7---7---7---7---7---5---7---10--|


D#|---------------------------------|---------------------------------|---------------------------------|
A#|---------------------------------|---------------------------------|---------------------------------|
F#|---------------------------------|---------------------------------|---------------------------------|
C#|---------------------------------|---------------------------------|---------------------------------|
G#|---------------------------------|---------------------------------|---------------------------------|
C#|-----5---5---5---5---3---3---3---|-7---7---7---7---7---5---7---10--|-----5---5---5---5---3---3---3---|


D#|---------------------------------|---------------------------------|---------------------------|
A#|---------------------------------|---------------------------------|---------------------------|
F#|---------------------------------|---------------------------------|---------------------------|
C#|---------------------------------|---------------------------------|---------------------------|
G#|---------------------------------|---------------------------------|---------------------------|
C#|-7---7---7---7---7---5---7---10--|-----3---3---3---3---5---5---5---|-7----7--------7-------6---|


D#|------------------------------|--------------------------------|------------------------------|
A#|------------------------------|--------------------------------|------------------------------|
F#|------------------------------|--------------------------------|------------------------------|
C#|-6----------------------------|--------------------------------|------------------------------|
G#|------------------------------|--------------------------------|------------------------------|
C#|-6---6-------6----6---6---6---|-5----5-------------5-------4---|-4---4---4---4----4---4---4---|


D#|---------------------------------|---------------------------------|---------------------------------|
A#|---------------------------------|---------------------------------|---------------------------------|
F#|---------------------------------|---------------------------------|---------------------------------|
C#|---------------------------------|---------------------------------|---------------------------------|
G#|---------------------------------|---------------------------------|---------------------------------|
C#|-3---3---3---3---3---3---3---3---|-3---3---3---3---3---3---3---3---|-5---5---5---5---5---5---5---5---|


D#|---------------------------------|---------------------------------|---------------------------------|
A#|---------------------------------|---------------------------------|---------------------------------|
F#|---------------------------------|---------------------------------|---------------------------------|
C#|---------------------------------|---------------------------------|---------------------------------|
G#|---------------------------------|---------------------------------|---------------------------------|
C#|-5---5---5---5---5---5---5---5---|-7---7---7---7---7---7---7---7---|-7---7---7---7---7---7---7---7---|


D#|---------------------------------|---------------------------------|---------------------------------|
A#|---------------------------------|---------------------------------|---------------------------------|
F#|---------------------------------|---------------------------------|---------------------------------|
C#|---------------------------------|---------------------------------|---------------------------------|
G#|---------------------------------|---------------------------------|---------------------------------|
C#|-10--10--10--10--10--10--10--10--|-10--10--10--10--10--10--10--10--|-3---3---3---3---3---3---3---3---|


D#|---------------------------------|---------------------------------|---------------------------------|
A#|---------------------------------|---------------------------------|---------------------------------|
F#|---------------------------------|---------------------------------|---------------------------------|
C#|---------------------------------|---------------------------------|---------------------------------|
G#|---------------------------------|---------------------------------|---------------------3---3-------|
C#|-3---3---3---3---3---3---3---3---|-5---5---5---5---5---5---5---5---|-5---2---2---2---2-----------5---|


D#|---------------------------------|---------------------------------|---------------------------------|
A#|---------------------------------|---------------------------------|---------------------------------|
F#|---------------------------------|---------------------------------|---------------------------------|
C#|---------------------------------|---------------------------------|---------------------------------|
G#|---------------------------------|---------------------------------|---------------------------------|
C#|-3---3---3---3---3---3---3---3---|-3---3---3---3---3---3---3---3---|-5---5---5---5---5---5---5---5---|


D#|---------------------------------|---------------------------------|---------------------------------|
A#|---------------------------------|---------------------------------|---------------------------------|
F#|---------------------------------|---------------------------------|---------------------------------|
C#|---------------------------------|---------------------------------|---------------------------------|
G#|---------------------------------|---------------------------------|---------------------------------|
C#|-5---5---5---5---5---5---5---5---|-2---2---2---2---2---2---2---2---|-2---2---2---2---2---2---2---2---|


D#|---------------------------------|---------------------------------|--------|--------|
A#|---------------------------------|---------------------------------|--------|--------|
F#|---------------------------------|---------------------------------|--------|--------|
C#|---------------------------------|---------------------------------|--------|-7------|
G#|---------------------------------|---------------------------------|--------|-7------|
C#|-3---3---3---3---3---3---3---3---|-5---5---5---5---5---5---5---5---|-7------|-7------|


D#|--------|--------|--------|--------|--------|--------|---------------------------------|
A#|--------|--------|--------|--------|--------|--------|---------------------------------|
F#|--------|--------|--------|--------|--------|--------|---------------------------------|
C#|-7------|-7------|--------|--------|--------|--------|---------------------------------|
G#|-7------|-7------|--------|--------|--------|--------|---------------------------------|
C#|-7------|-7------|--------|--------|--------|--------|-7---7---7---7---7---7---7---7---|


D#|---------------------------------|---------------------------------|---------------------------------|
A#|---------------------------------|---------------------------------|---------------------------------|
F#|---------------------------------|---------------------------------|---------------------------------|
C#|---------------------------------|---------------------------------|---------------------------------|
G#|---------------------------------|---------------------------------|---------------------------------|
C#|-7---7---7---7---7---7---7---7---|-7---7---7---7---7---7---7---7---|-7---7---7---7---7---7---7---7---|


D#|---------------------------------|---------------------------------|---------------------------------|
A#|---------------------------------|---------------------------------|---------------------------------|
F#|---------------------------------|---------------------------------|---------------------------------|
C#|---------------------------------|---------------------------------|---------------------------------|
G#|---------------------------------|---------------------------------|---------------------------------|
C#|-5---5---5---5---5---5---5---5---|-5---5---5---5---5---5---5---5---|-3---3---3---3---3---3---3---3---|


D#|---------------------------------|--------|---------------------------------|------------------------------|
A#|---------------------------------|--------|---------------------------------|------------------------------|
F#|---------------------------------|--------|---------------------------------|------------------------------|
C#|---------------------------------|--------|---------------------------------|------------------------------|
G#|---------------------------------|--------|---------------------------------|------------------------------|
C#|-5---5---5---5---5---5---5---5---|--------|---------------------------------|-7---7---7---7---7---7---7---7|


D#|---------------------------------|---------------------------------|---------------------------------|
A#|---------------------------------|---------------------------------|---------------------------------|
F#|---------------------------------|---------------------------------|---------------------------------|
C#|---------------------------------|---------------------------------|---------------------------------|
G#|---------------------------------|---------------------------------|---------------------------------|
C#|-7---7---7---7---7---7---7---7---|-10--10--10--10--10--10--10--10--|-10--10--10--10--10--10--10--10--|


D#|---------------------------------|---------------------------------|---------------------------------|
A#|---------------------------------|---------------------------------|---------------------------------|
F#|---------------------------------|---------------------------------|---------------------------------|
C#|---------------------------------|---------------------------------|---------------------------------|
G#|---------------------------------|---------------------------------|---------------------------------|
C#|-3---3---3---3---3---3---3---3---|-3---3---3---3---3---3---3---3---|-5---5---5---5---5---5---5---5---|


D#|---------------------------------|---------------------------------|---------------------------------|
A#|---------------------------------|---------------------------------|---------------------------------|
F#|---------------------------------|---------------------------------|---------------------------------|
C#|---------------------------------|---------------------------------|---------------------------------|
G#|---------------------3---3-------|---------------------------------|---------------------------------|
C#|-5---2---2---2---2-----------5---|-3---3---3---3---3---3---3---3---|-3---3---3---3---3---3---3---3---|


D#|---------------------------------|---------------------------------|---------------------------------|
A#|---------------------------------|---------------------------------|---------------------------------|
F#|---------------------------------|---------------------------------|---------------------------------|
C#|---------------------------------|---------------------------------|---------------------------------|
G#|---------------------------------|---------------------------------|---------------------------------|
C#|-5---5---5---5---5---5---5---5---|-5---5---5---5---5---5---5---5---|-2---2---2---2---2---2---2---2---|


D#|---------------------------------|---------------------------------|---------------------------------|
A#|---------------------------------|---------------------------------|---------------------------------|
F#|---------------------------------|---------------------------------|---------------------------------|
C#|---------------------------------|---------------------------------|---------------------------------|
G#|---------------------------------|---------------------------------|---------------------------------|
C#|-2---2---2---2---2---2---2---2---|-3---3---3---3---3---3---3---3---|-5---5---5---5---5---5---5---5---|


D#|---------------------------------|---------------------------------|---------------------------------|
A#|---------------------------------|---------------------------------|---------------------------------|
F#|---------------------------------|---------------------------------|---------------------------------|
C#|---------------------------------|---------------------------------|---------------------------------|
G#|---------------------------------|---------------------------------|---------------------------------|
C#|-7---7---7---7---7---5---7---10--|-10--5---5---5---5---3---3---3---|-7---7---7---7---7---5---7---0---|


D#|--------|
A#|--------|
F#|--------|
C#|--------|
G#|--------|
C#|-0------|
Добавлено: 20.12.2015
Вам также может быть интересно:
Другие материалы по этой песне:
  • Аккорды и текст

Страница создана 20.12.2015
http://primanota.ru/anavae/storm-chaser-chords.htm
Привет, Гость.
Предлагаем пройти революционный курс по гитаре.
Подарок от PrimaNota.Ru, забирай!