PrimaNota.ru - самый крупный в мире бесплатный архив песенных текстов, аккордов, табулатур и нот


Anathema - Transacoustic - таба, видео

Регистрация Запомнить меня
Войти через:  Facebook Google Twitter Vk Yandex Mail.ru

Anathema - Transacoustic - таба, видео

Печатать
Просмотров: 188
-----------------------------------------------------------------------------
                             transacoustic - anathema
-----------------------------------------------------------------------------
Tabbed by:abed el rahman baayoun
Email:saharienrebel@hotmail.com

Tuning:standard tuning eadgbe
this song is played on more that one guitar so i came up with this mixture in order for 
to be played on a single guitar here's the chorus progression i didn't tab the 
intro ,sorry :p
try playing really fast in spanish style you will get the same feel


play this 4x:

e|-3-3-3-3-3-3-5-5-5-5-5-5-5-5-5-5-5-5-6-5-5-3-3---------------------------|
B|-3-3-3-3-3-3-3-3-3-3-3-3-3-3-3-3-3-3-3-3-3-3-3---------------------------|
G|-0-0-0-0-0-0-0-0-0-0-0-0-0-0-0-0-0-0-0-0-0-0-0---------------------------|
D|-0-0-0-0-0-0-0-0-0-0-0-0-0-0-0-0-0-0-0-0-0-0-0---------------------------|
A|-------------------------------------------------------------------------|
E|-------------------------------------------------------------------------|
   > < > > < >   > < > < > < > < > < >   > < > <
then play:

e|-3-3-3-3-3-3-3-3-3-3-3-3-3-3h6-6-6-5-5-3-3-3-3-3-3-----------------------|
B|h4-4-4-4-4-4-4-4-4P3-3-3-3-3-3-3-3-3-3-3-3-3-3-3-3-----------------------|
G|-0-0-0-0-0-0-0-0-0-0-0-0-0-0-0-0-0-0-0-0-0-0-0-0-0-----------------------|
D|-0-0-0-0-0-0-0-0-0-0-0-0-0-0-0-0-0-0-0-0-0-0-0-0-0-----------------------|
A|-------------------------------------------------------------------------|
E|-------------------------------------------------------------------------|
   > < > > < > < > < > < > < > > < > > < > < > < > <
then play:

e|-3-3-3-3-3-3-3-3-3-3-3-3-3-3-3-------------------------------------------|
B|h4-4-4-4-4-4-4-4-4-4-4-4-4-4-4-------------------------------------------|
G|-0-0-0-0-0-0-0-0-0-0-0-0-0-0-0-------------------------------------------|
D|-0-0-0-0-0-0-0-0-0-0-0-0-0-0-0-------------------------------------------|
A|-------------------------------------------------------------------------|
E|-------------------------------------------------------------------------|
   > < > > < > < > < > < > < > <
then play:

e|-3-3-3-3-3-3-3-3-3-3-3-3-3-3-3-------------------------------------------|
B|p3-3-3-3-3-3-3-3-3-3-3-3-3-3-3-------------------------------------------|
G|-0-0-0-0-0-0-0-0-0-0-0-0-0-0-0-------------------------------------------|
D|-0-0-0-0-0-0-0-0-0-0-0-0-0-0-0-------------------------------------------|
A|-------------------------------------------------------------------------|
E|-------------------------------------------------------------------------|
   > < > > < > < > < > < > < > <

then start all over

please rate this tab


PS:hammer-on and pull-off the fret but still pick it


| >  struck down
| <  struck up
| /  slide up
| \  slide down
| h  hammer-on
| p  pull-off
| ~  vibrato
| +  harmonic
| x  Mute note
===============================================================================
Добавлено: 06.04.2012
Другие материалы по этой песне:

Страница создана 06.04.2012
http://primanota.ru/anathema/transacoustic-chords.htm
Привет, Гость.
Предлагаем пройти революционный курс по гитаре.
Подарок от PrimaNota.Ru, забирай!