PrimaNota.ru - самый крупный в мире бесплатный архив песенных текстов, аккордов, табулатур и нот


Anathema - Sunlight - таба, видео

Регистрация Запомнить меня
Войти через:  Facebook Google Twitter Vk Yandex Mail.ru

Anathema - Sunlight - таба, видео

Печатать
Просмотров: 75
Авторы музыки: Vincent Cavanagh, Danny Cavanagh
Авторы текста: Danny Cavanagh
                             Anathema - "Sunlight" (Intro only)


Tuning: 1/2 step down (Eb Ab Db Gb Bb Eb, or D# G# C# F# A# D#)
Tempo ~ 80bmp
Key Signature: Ab Major/F minor
Time Signature: 4/4

|---------------------------------|---------------------------------|
|---------------0---------------2-|---------------0---------------2-|
|---2---2---2-------2---2---2-----|---2---2---2-------2---2---2-----|
|-----0---0---0---0---0---0---0---|-----0---0---0---0---0---0---0---|
|---------------------------------|---------------------------------|
|-2-------------------------------|-2-------------------------------|

|---------------------------------|---------------0-----------------|
|---------------0---------------2-|-------------------------------2-|
|---2---2---2-------2---2---2-----|---2---2---2-------2---2---2-----|
|-----2---2---2---2---2---2---2---|-2---2---2---2---2---2---2---2---|
|---------------------------------|---------------------------------|
|-0-------------------------------|---------------------------------|

|---------------------------------|---------------0-----------------|
|---------------0---------------2-|-------------------------------2-|
|---2---2---2-------2---2---2-----|---2---2---2-------2---2---2-----|
|-----0---0---0---0---0---0---0---|-0---0---0---0---0---0---0---0---|
|---------------------------------|---------------------------------|
|-2-------------------------------|---------------------------------|

|---------------------------------|---------------0-----------------|
|---------------0---------------2-|-------------------------------2-|
|---2---2---2-------2---2---2-----|---2---2---2-------2---2---2-----|
|-----2---2---2---2---2---2---2---|-2---2---2---2---2---2---2---2---|
|---------------------------------|---------------------------------|
|-0-------------------------------|---------------------------------|

Добавлено: 19.12.2015
Другие материалы по этой песне:

Страница создана 20.08.2014
http://primanota.ru/anathema/sunlight-chords.htm
Привет, Гость.
Предлагаем пройти революционный курс по гитаре.
Подарок от PrimaNota.Ru, забирай!