PrimaNota.ru - самый крупный в мире бесплатный архив песенных текстов, аккордов, табулатур и нот


Anathema - Shroud Of False - аккорды и текст, видео

Регистрация Запомнить меня
Войти через:  Facebook Google Twitter Vk Yandex Mail.ru

Anathema - Shroud Of False - аккорды и текст, видео

Печатать
Просмотров: 248
Авторы музыки: Duncan Patterson
Авторы текста: Duncan Patterson
Shroud Of False
Anathema
RIFF A (main)
[E--------------------------
B--------------------------
G---------8----------------
D--5-5-5--8---8-8-7-8------
A--5-5-5--6---6-6-6-6------
E--3-3-3-------------------]

-

Piano arranged for guitar... You can play it with capo also but I'll tab the
simplest form...
stroke fast but don't play a chord... let ring... and play it slowwwly!!
-----0---------0------3-------1-------0h1------1---1----------------------
----1---------1---------1-------1----------3---3---3------3---3--3--1--0--
---2---------2------------2-------2--------2---2---2------0---0-----------
--2---------2---------------------------------------------0---0-----------
-0---------0----------------------------------------------2---2-----------
----------------------------------------------------------3---3-----------
repeat this with lyrics and then
distortion
----------------------------------------------------------------
----------------------------------------------------------------
--2--2--2---2-------------------2--2--2---2---------------------
--2--2--2---3-------------------2--2--2---3---------------------
--0--0--0---3--------3----2-3---0--0--0---3-----3---2-3---------
------------1-----1-----1-----------------1---1---1-------------
Добавлено: 24.04.2014
Другие материалы по этой песне:

Страница создана 29.02.2012
http://primanota.ru/anathema/shroud-of-false-chords.htm
Привет, Гость.
Предлагаем пройти революционный курс по гитаре.
Подарок от PrimaNota.Ru, забирай!