PrimaNota.ru - самый крупный в мире бесплатный архив песенных текстов, аккордов, табулатур и нот


Anathema - Lovelorn Rhapsody - текст песни, таба, бас-таба, видео

Регистрация Запомнить меня
Войти через:  Facebook Google Twitter Vk Yandex Mail.ru

Anathema - Lovelorn Rhapsody - текст песни, таба, бас-таба, видео

Печатать
Просмотров: 187
================================================================================
                                A N A T H E M A

                                       -

                        L O V E L O R N   R H A P S O D Y
================================================================================


                                    SERENADES
                         (c)  Peaceville Records (1993)
                             http://www.anathema.ws/


                       Standard Tuning [7-String Guitars]
                                  B E A D G B E

                                  Tempo = 86 BPM
                              Time Signature = 4/4



                          -----------------------------
                                 Transcribed by

                                 PADDY MCMULLAN
                           pmtabs (@t) gmail [dot] com

                                   Version 1.1
                                 30th June 2009
                     (Corrections Outlined at Bottom of Tab)
                             -----------------------

                             Tablature Symbols Used:


 P.M...    -  Palm Mute
 p         -  Pull-Off
 h         -  Hammer-On
 (/)       -  Legato Slide (Blank space indicates length of slide)
 \         -  Slide Down to/Down From (Blank space indicates length of slide)
 /         -  Slide Up To/Up From (Blank space indicates length of slide)
 ( )       -  Ghost Note/Tied Note/Implied Note
 REST      -  Rest and sustain rest for duration of blank space
 |_3_|     -  Triplet Notes
 |___[1]   -  Ending 1/2/3 etc.
 (2b4r2)   -  Bend note to the indicated pitch, then release
 3~~       -  Vibrato
 <3>       -  Pinch/Artificial Harmonic



================================================================================
Rest for 2 bars
================================================================================

================================================================================
Intro Part I: Guitars 1 & 2 with Heavy Distortion (Play 4 times)
================================================================================


||----------------------------|/|-------------------------|
||----------------------------|/|-------------------------|
||---R-     ------------------|/|----------R-----R-----R--|
||---E-     ------------------|/|----------E-----E-----E--|
||---S-     ------------------|/|--3----3--S--3--S--3--S--|
||---T-     -4--4--4----2--4--|/|--2----2--T--2--T--2--T--|
||-----------2--2--2----0--2--|/|--1----1-----1-----1-----|
             P.M....    ....


|------------------------------| |
|------------------------------| |
|-----R------------------------|*|
|-----E------------------------| |
|--3--S--3---------------------|*|
|--2--T--2----4--4--4----2--4--| |
|--1-----1----2--2--2----0--2--| |
              .......    ....



The first bar is played once only



================================================================================
Intro Part II: Guitar 1 (Play 4 times)
================================================================================


Guitar 2 plays Intro Part I 4 times


||--------------------------|-------------------------------| |
||--------------------------|-------------------------------| |
||--------R-----R-----R-----|--R-----R----------------------|*|
||--------E-----E-----E-----|--E-----E----------------------| |
||--3--3--S--3--S--3--S--3--|--S--3--S--3-------------------|*|
||--2--2--T--2--T--2--T--2--|--T--2--T--2--4--4--4----2--4--| |
||--1--1-----1-----1-----1--|-----1-----1--2--2--2----0--2--| |
                                           .......    ....



Note the slight variation in the timing between this riff and Intro Part I



================================================================================
Guitars 1 & 2 play Intro Part I four times, replacing the last bar with this:
================================================================================


|---------------------||
|---------------------||
|--------R-          -||
|--------E-          -||
|--3--3--S-          -||
|--2--2--T-          -||
|--1--1---------------||



================================================================================
Section 1.1: Guitar 1 (Play twice)
================================================================================


||-------------------|----------------------|-------------------|
||-------------------|----------------------|-------------------|
||-------------------|----------------------|-------------------|
||-------------------|----------------------|-------------------|
||--2----------------|--2--------2-----  /  | -7----------------|
||--2----------------|--2-------(2)---------|-------------------|
||--0----------------|--0-------(0)---------|-------------------|


|------------------------|-------------------|---------------------------|
|------------------------|-------------------|---------------------------|
|------------------------|-------------------|---------------------------|
|------------------------|-------------------|---------------------------|
|--7------9--10-----  \--|--2----------------|--(2     /3)--(3/5)--------|
|------------------------|-------------------|------------------------5--|
|------------------------|-------------------|---------------------------|

                       |________________________[1]
|----------------------|-------------------------||
|----------------------|-------------------------||
|----------------------|--------------------R-  -||
|----------------------|--------------------E-  -||
|----------------------|--------------------S-  -||
|--3----------- /8\ ---|--2--3--3--2--3--3--T-  -||
|----------------------|--0--1--1--0--1--1-------||
                         ...      ...

|____________________________[2]
|-----------------------------||
|-----------------------------||
|-----------------------------||
|-----------------------------||
|-------------------(3/5)--7--||
|--2--3--3--2--3--3-----------||
|--0--1--1--0--1--1-----------||
  ...      ...



================================================================================
Section 1.2: Guitar 2 (Play twice)
================================================================================


||-------------------|----------------------|-------------------|
||-------------------|----------------------|-------------------|
||-------------------|----------------------|-------------------|
||-------------------|----------------------|-------------------|
||--2----------------|--2-------------------|-------------------|
||--2----------------|--2--------2------ / -| -8----------------|
||--0----------------|--0-------------------|-------------------|


|----------------------|-------------------|----------------------|
|----------------------|-------------------|----------------------|
|----------------------|-------------------|----------------------|
|----------------------|-------------------|----------------------|
|----------------------|-------------------|----------------------|
|--8--------8-----  \--|--0----------------|--0--------3-----  \--|
|----------------------|-------------------|----------------------|

                    |_____________________[1]
|-------------------|---------------------| |
|-------------------|---------------------| |
|-------------------|-----R-             -|*|
|-------------------|-----E-             -| |
|--3----------------|--3--S-             -|*|
|--3----------------|--3--T-             -| |
|--1----------------|--1------------------| |

|______________________[2]
|-----------------------||
|-----------------------||
|-----R-         -------||
|-----E-         -------||
|-----S-         -------||
|--3--T-         -3--5--||
|--1--------------------||



================================================================================
Section 2.1: Guitar 1 (Play once)
================================================================================


  1                      2                         3
||----------------------|-------------------------|----------------------|
||----------------------|-------------------------|----------------------|
||----------------------|-------------------------|----------------------|
||--4~~-----------4--5--|--4~~-----------4   h 5--|--4~~-----------4  / -|
||----------------------|-------------------------|----------------------|
||----------------------|-------------------------|----------------------|
||----------------------|-------------------------|----------------------|

 4                         5                        6
|-------------------------|------------------------|-----------------------|
|-------------------------|------------------------|-----------------------|
|-------------------------|------------------------|-----------------------|
| -9~~--------------------|------------------------|-----------------------|
|--------7----5--4--2--0--|--2~~-------(4 b 5 r 4)-|--2~~------(4 b 5  r4)-|
|-------------------------|------------------------|-----------------------|
|-------------------------|------------------------|-----------------------|

 7                     8                       9
|---------------------|-----------------------|----------------------|
|---------------------|-----------------------|----------------------|
|---------------------|-----------------------|----------------------|
|---------------------|-----------------------|----------------------|
|--4---------------2--|--4~~------(2 b 4  r2)-|--2~~--------------0--|
|---------------------|-----------------------|----------------------|
|---------------------|-----------------------|----------------------|

 10                   11                   12
|--------------------|--------------------|-----------------------|
|--------------------|--------------------|-----------------------|
|--------------------|--------------------|-----------------------|
|--------------------|--4~~---------------|-----------------------|
|--2~~---------------|--------------------|--(4 / 5)----7----5----|
|--------------------|--------------------|-----------------------|
|--------------------|--------------------|-----------------------|

 13                     14
|----------------------|-----------------------------|
|----------------------|-----------------------------|
|----------------------|-----------------------------|
|--4~~-----------4--5--|--4~~-----4h5--5---4h5-5--2--|
|----------------------|--------------(0)------------|
|----------------------|-----------------------------|
|----------------------|-----------------------------|

 15                     16
|----------------------|-------------------------|
|----------------------|-------------------------|
|----------------------|-------------------------|
|--4~~-----------4  / -| -9~---------------------|
|----------------------|--------7----5--4--2--0--|
|----------------------|-------------------------|
|----------------------|-------------------------|

 17                         18                       19
|--------------------------|------------------------|---------------------|
|--------------------------|------------------------|---------------------|
|--------------------------|------------------------|---------------------|
|--------------------------|------------------------|---------------------|
|--0h2~~-------(4 b 5 r 4)-|--2~~------(4 b 5   r4)-|--4------------4--2--|
|--------------------------|------------------------|---------------------|
|--------------------------|------------------------|---------------------|

 20                        21                     22
|-------------------------|----------------------|--------------------||
|-------------------------|----------------------|--------------------||
|-------------------------|----------------------|--------------------||
|-------------------------|----------------------|--------------------||
|--4~~-----  \(2 b 4  r2)-|--2~~--------------0--|--2~~---------------||
|-------------------------|----------------------|--------------------||
|-------------------------|----------------------|--------------------||



================================================================================
Section 2.2: Guitar 2 (Play once)
================================================================================


  1                    2                      3
||--------------------|----------------------|-------------------|
||--------------------|----------------------|-------------------|
||--------------------|----------------------|-------------------|
||--------------------|----------------------|-------------------|
||--5~~---------------|--0------------0 h 1--|--1----------------|
||--------------------|----------------------|-------------------|
||--------------------|----------------------|-------------------|

 4                     5                       6
|---------------------|-----------------------|-------------------------|
|---------------------|-----------------------|-------------------------|
|---------------------|-----------------------|-------------------------|
|---------------------|-----------------------|-------------------------|
|--2~~-------0--------|-----------------------|-------------------------|
|---------------------|--3~~-----------3 h 4--|--4~~----------4--4 h 5--|
|---------------------|-----------------------|-------------------------|

 7                      8                        9
|----------------------|------------------------|--------------------|
|----------------------|------------------------|--------------------|
|----------------------|------------------------|--------------------|
|----------------------|------------------------|--------------------|
|----------------------|------------------------|--------------------|
|--5~~------------  \ -| -2~~-------2 p 0--2----|--3~~---------------|
|----------------------|------------------------|--------------------|

 10                  11                   12
|-------------------|--------------------|-----------------------|
|-------------------|--------------------|-----------------------|
|-------------------|--------------------|-----------------------|
|-------------------|--------------------|-----------------------|
|-------------------|--------------------|------------4~~--------|
|--0----------------|--------------------|--5~~-------------5----|
|-------------------|--3~~---------------|-----------------------|

 13                   14                     15
|--------------------|----------------------|-------------------|
|--------------------|----------------------|-------------------|
|--------------------|----------------------|-------------------|
|--------------------|----------------------|-------------------|
|--5~~---------------|--0------------0 h 1--|--1----------------|
|--------------------|----------------------|-------------------|
|--------------------|----------------------|-------------------|

 16                      17                      18
|-----------------------|-----------------------|--------------------------|
|-----------------------|-----------------------|--------------------------|
|-----------------------|-----------------------|--------------------------|
|-----------------------|-----------------------|--------------------------|
|--2~~-------0----0-----|-----------------------|--------------------------|
|--------------------3--|--3~~-----------3 h 4--|--4~~---------(4 b 5 r 4)-|
|-----------------------|-----------------------|--------------------------|

 19                     20                       21
|----------------------|------------------------|--------------------|
|----------------------|------------------------|--------------------|
|----------------------|------------------------|--------------------|
|----------------------|------------------------|--------------------|
|----------------------|------------------------|--------------------|
|--5~~------------  \ -| -2~~-------2 p 0--2----|--3~~---------------|
|----------------------|------------------------|--------------------|

 22
|----------------------||
|----------------------||
|----------------------||
|----------------------||
|----------------------||
|--0------------10\  --||
|---------------10\  --||



================================================================================
Section 3: Guitars 1 & 2 (Play once)
================================================================================


This riff is essentially the same as Section 2.1, with some variations outlined
below - Guitar 2 simply plays Section 2.2 twice


  1                   2                      3
||-------------------|----------------------|-------------------|
||-------------------|----------------------|-------------------|
||-------------------|----------------------|-------------------|
||-------------------|----------------------|-------------------|
||--2----------------|--2--------2------ / -| -7----------------|
||--2----------------|--2-------(2)---------|-------------------|
||--0----------------|--0-------(0)---------|-------------------|

 4                          5                   6
|--------------------------|-------------------|--------------------------|
|--------------------------|-------------------|--------------------------|
|--------------------------|-------------------|--------------------------|
|--------------------------|-------------------|--------------------------|
|--7------9--9h10----9- \ -| -2----------------|--2----2 / 3--(3/5)-------|
|--------------------------|-------------------|-----------------------5--|
|--------------------------|-------------------|--------------------------|

 7                    8                         9
|--------------------|-------------------------|-------------------|
|--------------------|-------------------------|-------------------|
|--------------------|--------------------R-  -|-------------------|
|--------------------|--------------------E-  -|-------------------|
|--------------------|--------------------S-  -|--2----------------|
|--3~~---------------|--2--3--3--2--3--3--T-  -|--2----------------|
|--------------------|--0--1--1--0--1--1-------|--0----------------|
                       ...      ...

 10                     11                  12
|----------------------|-------------------|---------------------|
|----------------------|-------------------|---------------------|
|----------------------|-------------------|---------------------|
|----------------------|-------------------|---------------------|
|--2--------2------ / -| -7----------------|--7------------7- \ -|
|--2-------(2)---------|-------------------|---------------------|
|--0-------(0)---------|-------------------|---------------------|

 13                  14                           15
|-------------------|----------------------------|--------------------|
|-------------------|----------------------------|--------------------|
|-------------------|----------------------------|--------------------|
|-------------------|----------------------------|--------------------|
| -2----------------|--2----2 / 3--(3/5)---------|--------------------|
|-------------------|-------------------------5--|--3~~---------------|
|-------------------|----------------------------|--------------------|

 16
|-----------------------------||
|-----------------------------||
|-----------------------------||
|-----------------------------||
|-------------------(3/5)--7--||
|--2--3--3--2--3--3-----------||
|--0--1--1--0--1--1-----------||
  ...      ...



================================================================================
Section 4.1: Guitar 1 (Play once)
================================================================================


This is essentially the same riff as Section 2.1 with variations tabbed below


  1                      2
||----------------------|---------------------------|
||----------------------|---------------------------|
||----------------------|---------------------------|
||--4~~-----------4--5--|--4~~-----4 h5-5-5--5---2--|
||----------------------|---------------------------|
||----------------------|---------------------------|
||----------------------|---------------------------|

 3                       4
|-----------------------|-----------------------------|
|-----------------------|-----------------------------|
|-----------------------|-----------------------------|
|--4~~-----------4--(5/ | 12)~~---11----9 \ 7--7h9----|
|-----------------------|-----------------------------|
|-----------------------|-----------------------------|
|-----------------------|-----------------------------|

 5                          6                         7
|--------------------------|-------------------------|---------------------|
|--------------------------|-------------------------|---------------------|
|--------------------------|-------------------------|---------------------|
|--------------------------|-------------------------|---------------------|
|--2~~---------(4 b 5 r 4)-|--2~~------(4 b 5   r 4)-|--4---------------2--|
|--------------------------|-------------------------|---------------------|
|--------------------------|-------------------------|---------------------|

 8                        9                      10
|------------------------|----------------------|--------------------------|
|------------------------|----------------------|--------------------------|
|------------------------|----------------------|--------------------------|
|------------------------|----------------------|--------------------------|
|--2h4-------(2 b 4 r 2)-|--2~~--------------0--|--2~~---------------------|
|------------------------|----------------------|--------3~~---2~~---------|
|------------------------|----------------------|--------------------3~~---|

 11                  12                  13
|-------------------|-------------------|-------------------|
|-------------------|-------------------|-------------------|
|-------------------|-------------------|-------------------|
|--*----------------|-------------------|-------------------|
|--2----------------|-(2)---------------|-(2)---------------|
|--2----------------|-(2)---------------|-(2)---------------|
|--0----------------|-(0)---------------|-(0)---------------|


* At this point the tempo increases to 116 BPM


 14
|----------------------------||
|----------------------------||
|----------------------------||
|----------------------------||
|-(2)------------------------||
|-(2)-------4--4--4----2--4--||
|-(0)-------2--2--2----0--2--||
            .......    ....



================================================================================
Section 4.2: Guitar 2 (Play once)
================================================================================


  1                    2                      3
||--------------------|----------------------|-------------------|
||--------------------|----------------------|-------------------|
||--------------------|----------------------|-------------------|
||--------------------|----------------------|-------------------|
||--5~~---------------|--0------------0 h 1--|--1----------------|
||--------------------|----------------------|-------------------|
||--------------------|----------------------|-------------------|

 4                     5                       6
|---------------------|-----------------------|--------------------------|
|---------------------|-----------------------|--------------------------|
|---------------------|-----------------------|--------------------------|
|---------------------|-----------------------|--------------------------|
|--2~~-------0--------|-----------------------|--------------------------|
|---------------------|--3~~-----------3 h 4--|--4~~---------(4 b 5 r 4)-|
|---------------------|-----------------------|--------------------------|

 7                      8                        9
|----------------------|------------------------|--------------------|
|----------------------|------------------------|--------------------|
|----------------------|------------------------|--------------------|
|----------------------|------------------------|--------------------|
|----------------------|------------------------|--------------------|
|--5~~------------- \ -| -2~~-------2 p 0--2----|--3~~---------------|
|----------------------|------------------------|--------------------|

 10                     11                  12
|----------------------|-------------------|-------------------|
|----------------------|-------------------|-------------------|
|----------------------|-------------------|-------------------|
|----------------------|-------------------|-------------------|
|----------------------|--2----------------|-(2)---------------|
|--0------------12\  --|--2----------------|-(2)---------------|
|---------------12\  --|--0----------------|-(0)---------------|

 13                  14
|-------------------|----------------------------||
|-------------------|----------------------------||
|-------------------|----------------------------||
|-------------------|----------------------------||
|-(2)---------------|-(2)------------------------||
|-(2)---------------|-(2)-------4--4--4----2--4--||
|-(0)---------------|-(0)-------2--2--2----0--2--||
                                .......    ....



================================================================================
Guitars 1 & 2 play Intro Part II four times, replacing the last bar with this:
================================================================================


|--------------------------------||
|--------------------------------||
|--R-----R-----------------------||
|--E-----E-----------------------||
|--S--3--S--3--------------------||
|--T--2--T--2--4--4--4----14\  --||
|-----1-----1--2--2--2----14\  --||
               .......



================================================================================
Section 5: Guitars 1 & 2 (Play twice)
================================================================================


||-----------------------------|---------------------------|
||-----------------------------|---------------------------|
||-----------------------------|---------------------------|
||-----------------------------|-----2--3------------------|
||-----------------------------|-----------3~~-------------|
||-------------------2--2-2-2--|-----------------2--2-2-2--|
||--0--6--3--5~~-  \-0--0-0-0--|--0--------------0--0-0-0--|
                     ........                    ........

|-----------------------------|--------------------------| |
|-----------------------------|--------------------------| |
|-----------------------------|--------------------------|*|
|-----4--5--------------------|-----2--3--------5--------| |
|-----------5~~-  \-----------|-----------3~~------3--2--|*|
|-------------------2--2-2-2--|--------------------------| |
|--0----------------0--0-0-0--|--0-----------------------| |
                    ........



================================================================================
Guitars 1 & 2 play Intro Part II 4 times, replacing the [first] bar with this:
================================================================================


||--------------------------||
||--------------------------||
||--------R-----R-----R-----||
||--------E-----E-----E-----||
||-----3--S--3--S--3--S--3--||
||--2--2--T--2--T--2--T--2--||
||--0--1-----1-----1-----1--||



================================================================================
Guitars 2 play Section 5 four times; guitar 1 plays the following:
================================================================================


||-----------------------------|---------------------------|
||-----------------------------|---------------------------|
||-----------------------------|---------------------------|
||-----------------------------|---------------------------|
||-----------------------------|-----2--3------------------|
||-------------------2--2-2-2--|-----------3~~---2--2-2-2--|
||--0--6--3--5~~- \--0--0-0-0--|--0--------------0--0-0-0--|
                     ........                    ........

                             |_________________________[1,3,4]
|----------------------------|-----------------------------| |
|----------------------------|-----------------------------| |
|----------------------------|-----------------------------|*|
|----------------------------|-----------------------------| |
|-----4--5-------------------|-----2--3-------(3/5)--0--2--|*|
|-----------5-- \--2--2-2-2--|-----------3~~---------------| |
|--0---------------0--0-0-0--|--0--------------------------| |
                   ........

|______________________________[2]
|-------------------------------||
|-------------------------------||
|-------------------------------||
|---------------------------4---||
|-----2--3-------(3/5)--7--(0)--||
|-----------3~~-----------------||
|--0----------------------------||



================================================================================
Section 6: Guitars 1 & 2 (Play twice)
================================================================================


Guitar 2 plays only the third and fourth bars, repeated 4 times, while Guitar 1
plays the riff in its entirety (repeated twice):



||-----------------------------|--------------------------|
||-----------------------------|--------------------------|
||-----------------------------|-----------9--------------|
||-----------------------------|--------7-----------9--7--|
||-----------------------------|-----5-----------7--------|
||-------------------2--2-2-2--|--------------5-----------|
||--0--6--3--5~~- \--0--0-0-0--|--0-----------------------|
                     ........

|-----------------------------|--------------------------| |
|-----------------------------|--------------------------| |
|-----------------------------|--------------------------|*|
|-----------------------------|-----------7--------------| |
|-----------------------------|--------5-----------7--5--|*|
|-------------------2--2-2-2--|-----3-----------5--------| |
|--0--6--3--5~~- \--0--0-0-0--|--0-----------3-----------| |
                    ........



================================================================================
Outro: Guitars 1 & 2 (Play 4 times)
================================================================================


Guitar 2 doesn't play the pinch harmonic in bar two; it plays the note normally


||-----------------------------|-------------------------------| |
||-----------------------------|-------------------------------| |
||-----------------------------|-----R-----------R-------------|*|
||-----------------------------|-----E-----------E-------------| |
||-----------------------------|-----S-----------S-------------|*|
||-------------------2--2-2-2--|--2--T--2-2-2--2-T-2-2---------| |
||--0--6--3--5~~- \--0--0-0-0--|--0-----0-0-0--0---0-0-<3>~~---| |
                     ........           .....      ...


After the last repeat, both guitars end on the following:



||--------------------||
||--------------------||
||-----R-            -||
||-----E-            -||
||--2--S-            -||
||--2--T-            -||
||--0-----------------||



================================================================================
End
================================================================================


Tab summary:        Intro Part I x 4
                    Intro Part II x 4
                    Intro Part I x 4
                    Section 1 x 2
                    Section 2 x 1
                    Section 3 x 1
                    Section 4 x 1
                    Intro Part II x 4
                    Section 5 x 2
                    Intro Part II x 4
                    Section 5 w/ Variations x 4
                    Section 6 x 2
                    Outro x 4

                    END


-----------------------
Corrections (30/06/09):
-----------------------

* Corrected annotation in Section 6
Добавлено: 22.06.2012
Другие материалы по этой песне:

Страница создана 21.02.2012
http://primanota.ru/anathema/lovelorn-rhapsody-chords.htm
Привет, Гость.
Предлагаем пройти революционный курс по гитаре.
Подарок от PrimaNota.Ru, забирай!